System Of A Down - Soil Chords & Tabs

 

Soil Chords & Tabs

System Of A Down Chords & Tabs

Version: 3 Type: Tab 0 ratings
1 star 2 stars 3 stars 4 stars 5 stars
comments

Soil Tab

   
BAND : System of a down
TITLE: Soil
ALBUM: System of a Down
Tuning: Drop D tuning
Tabbed by KoRotz
Contact me if you have any necessary changes that need to be made at 
epat_skateboarding@hotmail.com or lovehatetragedy@paparoachmail.com

This song is probably one of the hardest songs to play from System becuase of the solo.
Anyways heres my version of it and I say its pretty close cause I watched Darren during
their concert and it's Pretty much 100% correct.  Also I'd been trying to get the tabs 
for this song for sooo long but no one had bothered to do it properly with the solo and
everything so I had to do it for myself in the end.
ENJOY!!


INTRO 1
Strum this with a clean effect
e|-----| 
B|-----|
G|-----|
D|--7--|
A|--8--|
D|-----|

INTRO 2/CHORUS
Play with heavy distortion
e|---------------------------------------| 
B|---------------------------------------|
G|---------------------------------------|
D|-3-1-0-0h3-1-0-<<(x3)-3-1-0-0h3-1/4-4--|
A|-3-1-0-0h3-1-0--------3-1-0-0h3-1/4-4--|
D|-3-1-0-0h3-1-0--------3-1-0-0h3-1/4-4--|

				
	 			
VERSE			    PRE-CHORUS	
e|------------------| |--------------|
B|------------------| |--------------|
G|------------------| |--------------|
D|------------------| |-00--0-1-3----|
A|------------------| |-00--0-1-3----|
D|-3-1-0-0h3-1-0----| |-00--0-1-3----|
       p.m

BRIDGE 1

e|---------------------------------------------13---|[ Tab from: http://www.guitartabs.cc/tabs/s/system_of_a_down/soil_tab_ver_3.html ]
SOLO
e|---10-12-13---12-13-15---------10-12-13------x--||-----------------------|
B|---10-------------------10^----10-------10^--x--||-----------------------|
G|---10--------------------------10------------x--||-----------------------|
D|-0----------------------------------------------||-----3-------x--x-x----|A|-10-9-6-5-6-9-10-9-10-13-12-10-9-6-5-|
D|-------------------------------------|
"DONT YOU REALISE EVIL LIVES IN THE MUTHA FUCKIN' SKIN" (thats when he's screaming it)

BRIDGE 5
e|------------------------------------------------------|
B|------------------------------------------------------|
G|-12\-11\-8\-7/-8\-11/-12\-11/-12/-15/-14\-12\-11\-8\-7|
D|------------------------------------------------------|
A|------------------------------------------------------|
D|------------------------------------------------------|
"DONT YOU, REALISE EVIL LIVES IN THE MUTHA FUCKIN' SKIN"

BRIDGE 6
e|/15-14-11-10-11-14-15-14-15-18-17-15-14-11-10--|
B|-----------------------------------------------|
G|-----------------------------------------------|
D|-----------------------------------------------|
A|-----------------------------------------------|
D|-----------------------------------------------|

ENDING
e|-------------| 
B|-------------|
G|-------------|
D|-3-1-0-0h3-0-|
A|-3-1-0-0h3-0-|
D|-3-1-0-0h3-0-|
"WHY THE FUCK DID YOU TAKE HIM AWAY FROM US YOU MUTHA FUCKAAAA!!!

ORDER PLAYED
INTRO 1
INTRO 2
VERSE
PRE-CHORUS
CHORUS
BRIDGE 1
VERSE
PRE-CHORUS
CHORUS
BRIDGE 2
BRIDGE 3
SOLO
BRIDGE 4
BRIDGE 5
BRIDGE 6
ENDING

And there you have it, cool banana's!!!. I hope you guys enjoy it becuase it took me a while.
Oh well you'll get the hang of it pretty much right away its that easy ok catch u guys later.

KoRotz 
Comments