System Of A Down - Soil Chords & Tabs

 

Soil Chords & Tabs

System Of A Down Chords & Tabs

Version: 2 Type: Tab 0 ratings
1 star 2 stars 3 stars 4 stars 5 stars
comments

Soil Tab

System of a Down - Soil (I noticed some errors is the older version I tabbed this is about 100% correct) 

--------------------------------------------------------------------------------
----10--10--10---10--10--10--10---10--10--10---10---10-------------
----10--10--10---10--10--10--10---10--10--10---10---10--------------
----10--10--10---10--10--10--10---10--10--10---10---10--------------
-----8---8---8----8---8---8---8----8---8---8----8----8----8--------------
--------------------------------------------------------------------------------


--------------------------------------------------------------------------------
----10---10--10--10--10--10--10--10--10--10--10--10--10--10--10--
----10---10--10--10--10--10--10--10--10--10--10--10--10--10--10--
----10---10--10--10--10--10--10--10--10--10--10--10--10--10--10--
-----8----8----8---8----8---8----8---8----8----8---8---8----8----8---8---
--------------------------------------------------------------------------------


---------------------------------------------------------------------------------
---10--10--10--10--10---10--10--10---10--10--10--10--10--10-------
---10--10--10--10--10---10--10--10---10--10--10--10--10--10-------
---10--10--10--10--10---10--10--10---10--10--10--10--10--10-------
----8---8----8---8----8----8----8---8-----8---8----8---8----8----8--------


--------------------------------------------------------------------------------
----10----10--10--10----10--10--10----10--10--10----------------------
----10----10--10--10----10--10--10----10--10--10----------------------
----10----10--10--10----10--10--10----10--10--10---------0----0------
-----8-----8----8---8------8----8---8-----8----8----8---------0----0------
--------------------------------------------------------------------------------


--------------------------------------------------------------------------------
--------------------------------------------------------------------------------
--------------------------------------------------------------------------------
--------------------------------------------------------------------------------
----3------1------0------3----3------1---1------0------0------0---0--------
----3------1------0------3----3------1---1------0------0------0---0--------


--------------------------------------------------------------------------------
--------------------------------------------------------------------------------
--------------------------------------------------------------------------------
--------------------------------------------------------------------------------
----3------1------0------3---3------1---0---0---4------0-------------------
----3------1------0------3---3------1---0---0---4------0-------------------


-------------------------------------------------------------------------------------------------------------
-------------------------------------------------------------------------------------------------------------
-------------------------------------------------------------------------------------------------------------
-------------------------------------------------------------------------------------------------------------
----3---1---0---3---3------1---1----0---0--0----3---1---0---3---3------1----0----0----4-------0----
----3---1---0---3---3------1---1----0---0--0----3---1---0---3---3------1----0----0----4-------0----



------------------------------------------------------------------------------
------------------------------------------------------------------------------
------------------------------------------------------------------------------
------------------------------------------------------------------------------
------------------------------------------------------------------------------
-----3----1----0----3--3-------1---1---1---0------------------------------


------------------------------------------------------------------------------
------------------------------------------------------------------------------
------------------------------------------------------------------------------
------------------------------------------------------------------------------
------------------------------------------------------------------------------
-----3----1----0----3--3------1---0---0---4---0--------------------------


------------------------------------------------------------------------------
------------------------------------------------------------------------------
------------------------------------------------------------------------------
------------------------------------------------------------------------------
------------------------------------------------------------------------------
-----3----1----0----3--3------1---1---1----0------------------------------


------------------------------------------------------------------------------
------------------------------------------------------------------------------
------------------------------------------------------------------------------
------------------------------------------------------------------------------
------------------------------------------------------------------------------
-----3----1----0----3--3------1---0---0----4----4---0-------------------


------------------------------------------------------------------------------
------------------------------------------------------------------------------
------------------------------------------------------------------------------
------------------------------------------------------------------------------
------------------------------------------------------------------------------
-----3----1----0----3--3-------1---1---1---0------------------------------


------------------------------------------------------------------------------
------------------------------------------------------------------------------
------------------------------------------------------------------------------
------------------------------------------------------------------------------
------------------------------------------------------------------------------
-----3----1----0----3--3------1---0---0----4----4---0-------------------


------------------------------------------------------------------------------
------------------------------------------------------------------------------
------------------------------------------------------------------------------
------------------------------------------------------------------------------
------------------------------------------------------------------------------
-----3----1----0----3--3-------1---1---1---0------------------------------


------------------------------------------------------------------------------
------------------------------------------------------------------------------
------------------------------------------------------------------------------
------------------------------------------------------------------------------
------------------------------------------------------------------------------
-----3----1----0----3--3-------1---0---0---4---4---4---0----------------


------------------------------------------------------------------------------
------------------------------------------------------------------------------
------------------------------------------------------------------------------
------------------------------------------------------------------------------
-------------------3/5---5---5---5------------------------------------------
-----0---0-------------------------------------------------------------------


-------------------------------------------------------------------------------------------------------------
-------------------------------------------------------------------------------------------------------------
-------------------------------------------------------------------------------------------------------------
-------------------------------------------------------------------------------------------------------------
----3---1---0---3---3------1---1----0---0--0----3---1---0---3---3------1----1----1----0-------------
----3---1---0---3---3------1---1----0---0--0----3---1---0---3---3------1----1----1----0-------------


--------------------------------------------------------------------------------------------------------------------------
--------------------------------------------------------------------------------------------------------------------------
--------------------------------------------------------------------------------------------------------------------------
--------------------------------------------------------------------------------------------------------------------------
----3---1---0---3---3------1---1----0---0--0----3---1---0---3---3------1----0----0-------------------------------
----3---1---0---3---3------1---1----0---0--0----3---1---0---3---3------1----0----0----1---4---4---4-------0----


-------------------------------------------------------------------------------
--------9-----9---9---9-----9---9---9-----9--9--9--9--9--9--------------
--------x-----x---x---x-----x---x---x-----x--x--x--x--x--x--------------
--------6-----6---6---6-----6---6---6-----6--6--6--6--6--6--------------
-------------------------------------------------------------------------------
-------------------------------------------------------------------------------


--------12-----12---12---12-----12---12---12-----12--12--12--12--12--12-----
---------x------x-----x----x-------x----x-----x-------x---x---x----x---x----x-----
---------9------9-----9----9-------9----9-----9-------9---9---9----9---9----9------
------------------------------------------------------------------------------------------
------------------------------------------------------------------------------------------
------------------------------------------------------------------------------------------


-------------------------------------------------------------------------------
--------9-----9---9---9-----9---9---9-----9--9--9--9--9--9--------------
--------x-----x---x---x-----x---x---x-----x--x--x--x--x--x--------------
--------6-----6---6---6-----6---6---6-----6--6--6--6--6--6--------------
-------------------------------------------------------------------------------
--------------------------------------------------------------------------0---
--------12-----12---12---12-----12---12---12-----12--12--12--12--12--12--------------
---------x------x-----x----x-------x----x-----x-------x---x---x----x---x----x---------------
---------9------9-----9----9-------9----9-----9-------9---9---9----9---9----9---------------
--------------------------------------------------------------------------------------------------
--------------------------------------------------------------------------------------------------
----------------------------------------------------------------------------------------------0---


--------11-----11---11---11----11---11---11---11---11---11--11--11--11--11--11----------------
---------x------x-----x----x------x-----x----x-----x----x-----x---x---x----x---x----x-----------------
---------8------8-----8----8------8-----8----8-----8----8-----8---8---8----8---8----8-----------------
--------------------------------------------------------------------------------------------------------------
--------------------------------------------------------------------------------------------------------------
--------------------------------------------------------------------------------------------------------0-----


-----13-----13--13--13--13--13--13--13--13--13--13--13------------
-----13-----13--13--13--13--13--13--13--13--13--13--13------------
-----13-----13--13--13--13--13--13--13--13--13--13--13------------
------------------------------------------------------------------------------
------------------------------------------------------------------------------
------------------------------------------------------------------------------


--------11-----11---11---11----11---11---11---11---11---11--11--11--11--11--11----------------
---------x------x-----x----x------x-----x----x-----x----x-----x---x---x----x---x----x-----------------
---------8------8-----8----8------8-----8----8-----8----8-----8---8---8----8---8----8-----------------
--------------------------------------------------------------------------------------------------------------
--------------------------------------------------------------------------------------------------------------
--------------------------------------------------------------------------------------------------------0-----


-----13-----13--13--13--13--13--13--13--13--13--13--13------------
-----13-----13--13--13--13--13--13--13--13--13--13--13------------
-----13-----13--13--13--13--13--13--13--13--13--13--13------------
------------------------------------------------------------------------------
------------------------------------------------------------------------------
------------------------------------------------------------------------------


-------------------------------------------------------------------------------------------------------------
------------------------------------------------------------------------------------------------------------
------------------------------------------------------------------------------------------------------------
-------------------------------------------------------------------------------------------------------------
----3------1------0------3---3------1---0---0---4------4------------0---------------------0-----0-----
----3------1------0------3---3------1---0---0---4------4------------0---------------------0-----0-----


--------------------------------------------------------------------------------------------------------------------------
---------------------------------------------------------------------------------------------------------------------------
---------------------------------------------------------------------------------------------------------------------------
---------------------------------------------------------------------------------------------------------------------------
--------0-----0------------------------------------0-------------0-------------------0-----------0----------------------
--------0-----0------------------------------------0-------------0-------------------0-----------0----------------------






------------------------------------------------------------------------------
------------------------------------------------------------------------------
-----7------7---7---7-------7---7---7---7---7--7---7--------7-----------
------------------------------------------------------------------------------
------------------------------------------------------------------------------
------------------------------------------------------------------------------


------------------------------------------------------------------------------
------------------------------------------------------------------------------
-----7------7---7---7-------7---7---7---7---7--7---7--------7-----------
------------------------------------------------------------------------------
------------------------------------------------------------------------------
------------------------------------------------------------------------------


------------------------------------------------------------------------------
------------------------------------------------------------------------------
-----7------7---7---7-------7---7---7---7---7--7---7--------7-----------
------------------------------------------------------------------------------
------------------------------------------------------------------------------
------------------------------------------------------------------------------

-------------------------------------------------------------------12--------
------------------------------------------------------------------------------
----7------7---7---7-------7---7---7---7---7-----------------------------
----------------------------------------------------------0------------------
----------------------------------------------------------0------------------
-----------------------------------------------------------------------------

[ Tab from: http://www.guitartabs.cc/tabs/s/system_of_a_down/soil_tab_ver_2.html ]
----10---10--10--10---10--10--10--10--10--10--10---10--10--------
------------------------------------------------------------------------------
------------------------------------------------------------------------------
------------------------------------------------------------------------------
------------------------------------------------------------------------------
------------------------------------------------------------------------------



-----10---10--10--10---10--10-----10--10--10--10-----10---10------
------------------------------------------------------------------------------
------------------------------------------------------------------------------
------------------------------------------------------------------------------
------------------------------------------------------------------------------
------------------------------------------------------------------------------






----10---10--10--10---10--10--10--10--10--10--10---10--10--------
------------------------------------------------------------------------------
------------------------------------------------------------------------------
------------------------------------------------------------------------------
------------------------------------------------------------------------------
------------------------------------------------------------------------------


----10---10--10--10---10--10--10--10--10--10--10---10--10--10---
------------------------------------------------------------------------------
------------------------------------------------------------------------------
------------------------------------------------------------------------------
------------------------------------------------------------------------------
------------------------------------------------------------------------------


Guitar Solo

------(10)-----------------------10-----12-----------13----------------12-----13-----15-----------------------
----------------------------------10--------------------------------------------------------------------------10---
----------------------------------10--------------------------------------------------------------------------------
---------------------------------------------------------------------------------------------------------------------
--------0-----------------------------------------------------------------------------------------------------------
--------0-----------------------------------------------------------------------------------------------------------


--------------------------------------------------------------------------------------------------------------------------------
--------------------------------------------------------------------------------------------------------------------------------
--------------------------------------------------------------------------------------------------------------------------------
--------------------------------------------------------------------------------------------------------------------------------
--------0-----------------------------------------------------------------------------------------------------------------------
--------0-------------------------------------------8--8--8-8--8-8-8--8-8-8---8/3--3--3-3-3--3-3-3-3-3-3-3---3-3----


------(10)-----------------------10-----12-----------13---------------------------------------------------------------
----------------------------------10----------------------------------------10------------(10)-------X--X--X--------
----------------------------------10-------------------------------------------------------------------X--X--X--------
--------------------------------------------------------------------------------------------------------X--X--X--------
--------------------------------------------------------------------------------------------------------------------------
--------------------------------------------------------------------------------------------------------------------------


----------------------------------------------------------------------------------------------------------------------------
----------------------------------------------------------------------------------------------------------------------------
----------------------------------------------------------------------------------------------------------------------------
-----------3/---------3/---------3/----------3/---------------3/----------3/---------3/----------3/------------3/--------
------3/5----5--3/5----5—3/5----5—3/5----5--------3/5----5—3/5---5—3/5----5—3/5----5-----3/5---5------
----------------------------------------------------------------------------------------------------------------------------


-----------X-X-X------------------------------------------------------------------------------------------------------------
-----------X-X-X------------------------------------------------------------------------------------------------------------
-----------X-X-X------------------------------------------------------------------------------------------------------------
----------------------------3/---------3/---------3/----------3/----------------3/-----------3/----------3/-----------3/-----
----(5)-----------------3/5----5--3/5----5—3/5----5—3/5----5--------3/5----5—3/5---5—3/5----5—3/5----5----
--------------------------------------------------------------------------------------------------------------------------------
---------------------------------------------------------------------------------------------------------------------------------
---------------------------------------------------------------------------------------------------------------------------------
----------------------------------------------------(11)----------10/--------------10/--------------10/--------------10/-----
------------------------------------------------------------10/12----12—10/12-----12—10/12------12—10/12----12--
------3/5------------------------/ 5 \-------------------------------------------------------------------------------------------
---------------------------------------------------------------------------------------------------------------------------------


---------------------------------------------------------------------------------------------------------------------------------
--------------------------------------------------------------------11----11--------(11)-------10----------------------------
---------10/------------10/------------10/------------10/-----------------------------------------------10-----10-----10---
--10/12----12--10/12----12--10/12----12--10/12----12------------------------------------------------------------------
---------------------------------------------------------------------------------------------------------------------------------
---------------------------------------------------------------------------------------------------------------------------------


-------------------------------10---------------------------------10--------
----------------10----10-----10----------------10------10-----10--------
-----10/-------10----10-------------10/--------10-----10----------------
-----10/12---------------------------10/12--------------------------------
------------------------------------------------------------------------------
------------------------------------------------------------------------------


------------------------------------------------------------------------------
----------------10-----10---------------------------------------------------
-----10/-------10-----10---------------10--12-----------10/12----------
-----10/12-------------------10/12----------------------------------------
------------------------------------------------------------------------------
------------------------------------------------------------------------------


-----------------------------------------13----15-----------15---15---15---15--15--15---15--15--15------
-----13-------(13)-----13-\ 8 /-15---------------------------------------------------------------------------
-----------------------------------------------------------------------------------------------------------------
-----------------------------------------------------------------------------------------------------------------
-----------------------------------------------------------------------------------------------------------------
-----------------------------------------------------------------------------------------------------------------


----------------------------------------------------------------------------------------------
--------------------------------------------------------------------------------------
--------------------------------------------------------------------------------------
---10---11--11--10-----10--10---10/7---7--7—7/6---6--6--------------------
----9---10--10----9------9----9----9/6---6--6---6/5---5--5--------------------
--------------------------------------------------------------------------------------


----------------------------------------------------------------------------------------------
--------------------------------------------------------------------------------------
--------------------------------------------------------------------------------------
----7-----7---7---10-----10---10---10/11---11---11---10-----10--------------
----6-----6---6----9------9-----9-----9/10---10---10----9------9---------------
--------------------------------------------------------------------------------------


-------------------------------------------------------------------------------------------------
-----------------------------------------------------------------------------------------
-----------------------------------------------------------------------------------------
----11-------11--11---11/14---14---14/13---13---13---13---13/11---11--------
----10-------10--10---10/13---13---13/12---12---12---12---12/10---10--------
------------------------------------------------------------------------------------------


----------------------------------------------------------------------------------------------
--------------------------------------------------------------------------------------
--------------------------------------------------------------------------------------
-----10-------10---10---10/7---7-------7/6---6-------6/------------------------
------9---------9----9----9/6----6-------6/5---5-------5/------------------------
--------------------------------------------------------------------------------------


-------------------------------------------------------------------------------------------------------
------------------------------------------------------------------------------------------------
------11/12---12---12---12/11---11---11---11/8---8---8---8/7---7---7----------------
------------------------------------------------------------------------------------------------
------------------------------------------------------------------------------------------------
------------------------------------------------------------------------------------------------


----------------------------------------------------------------------------------------------
--------------------------------------------------------------------------------------
-----7/8---8---8---8/11---11---11---11/12---12/11---11-----11---11--------
--------------------------------------------------------------------------------------
--------------------------------------------------------------------------------------
--------------------------------------------------------------------------------------


----------------------------------------------------------------------------------------------------
---------------------------------------------------------------------------------------------
-----11/12---12---12---12/15---15---15---15/14---14---14---14/12---12---12---
---------------------------------------------------------------------------------------------
---------------------------------------------------------------------------------------------
---------------------------------------------------------------------------------------------


----------------------------------------------------------------------------X----X----------
--------------------------------------------------------------------------------------
----12/11---11---11---11/8---8---8---8/7---7---7---7---7---------------------
--------------------------------------------------------------------------------------
--------------------------------------------------------------------------------------
--------------------------------------------------------------------------------------


----14/15---15---15---15/14---14---14---14/11---1---1---11/10---10---10---
-----------------------------------------------------------------------------------------
-----------------------------------------------------------------------------------------
-----------------------------------------------------------------------------------------
-----------------------------------------------------------------------------------------
-----------------------------------------------------------------------------------------


-----14/15---15---15---15/18---18---18/17---17---17---17/15---15---15---
--------------------------------------------------------------------------------------
--------------------------------------------------------------------------------------
--------------------------------------------------------------------------------------
--------------------------------------------------------------------------------------
--------------------------------------------------------------------------------------


----------------------------------------------------------------------------------------------
--------------------------------------------------------------------------------------
--------------------------------------------------------------------------------------
--------------------------------------------------------------------------------------
----3-----1-----0-----3-----3-------1-----1-----1---0---0------------------------
----3-----1-----0-----3-----3-------1-----1-----1---0---0------------------------


----------------------------------------------------------------------------------------------
--------------------------------------------------------------------------------------
--------------------------------------------------------------------------------------
--------------------------------------------------------------------------------------
----3-----1-----0-----3-----3-------1-----1-----1-----0-----0--------------------
----3-----1-----0-----3-----3-------1-----1-----1-----0-----0--------------------


----------------------------------------------------------------------------------------------
--------------------------------------------------------------------------------------
--------------------------------------------------------------------------------------
--------------------------------------------------------------------------------------
----3-----1-----0-----3-----3-------1-----1-----1-----0------0-------------------
----3-----1-----0-----3-----3-------1-----1-----1-----0------0-------------------


----------------------------------------------------------------------------------------------
--------------------------------------------------------------------------------------
--------------------------------------------------------------------------------------
--------------------------------------------------------------------------------------
----3-----1-----0-----3-----3--------1-----1-----1-----4-----4-----4-----4------
----3-----1-----0-----3-----3--------1-----1-----1-----4-----4-----4-----4------


----------------------------------------------------------------------------------------------
--------------------------------------------------------------------------------------
--------------------------------------------------------------------------------------
--------------------------------------------------------------------------------------
---3------1------0------3------3-------1-----1-----1------0-----0----------------
---3------1------0------3------3-------1-----1-----1------0-----0----------------


-----------------------------------------------------------------------------------------------------------------------------------------
---------------------------------------------------------------------------------------------------------------------------------
---------------------------------------------------------------------------------------------------------------------------------
---------------------------------------------------------------------------------------------------------------------------------
----3--1--0--3--3-----1--1--1--0--0---3--1--0-----3--3-------1--1--1--0--0----3---1---0---3---3-----1--1--1--0-----
----3--1--0--3--3-----1--1--1--0--0---3--1--0-----3--3-------1--1--1--0--0----3---1---0---3---3-----1--1--1--0----
Comments