System Of A Down - Snowblind Chords & Tabs

 

Snowblind Chords & Tabs

System Of A Down Chords & Tabs

Version: 2 Type: Tab 0 ratings
1 star 2 stars 3 stars 4 stars 5 stars
comments

Snowblind Tab

System of A Down
Snowblind

Tune to drop D, then a step down (Drop C)

PM-palm mute
h-harmonic

	I'm pretty sure this is all right except for the slow part in
a clean channel that is palm muted and the verse. It sounds 
close but not perfect.


Intro:

{______________PM_____________}
|---------------------------------------------------
|---------------------------------------------------
|-------------------------------333333-555555-------
|-00000-22222-333333-------000--333333-555555-------
|--------------------33333------111111-333333-------
|---------------------------------------------------


The Verse uses many harmonics and I couldn't figure it all out but here is
what I got:
                           {___PM__}
|---------------------------------------------------
|---7h--7h-------------7h---------------------------
|-7h--5h-------------7h---5pm-7h--------------------
|---------------0000------------------0000----------
|----------3333------------------3333---------------
|---------------------------------------------------

Next Part: (pick one of the following two)

|---------------------------------------------------
|---------------------------------------------------
|---------------------------------------------------
|--12-10-9-5-7-8-8-8-10-10-10-10--------------------
|--12-10-9-5-7-8-8-8-10-10-10-10--------------------
|--12-10-9-5-7-8-8-8-10-10-10-10--------------------
[ Tab from: http://www.guitartabs.cc/tabs/s/system_of_a_down/snowblind_tab_ver_2.html ]
	OR you can play this instead of the above, it sounds the same so 
just pick which is easier for you.

|---------------------------------------------------
|---------------------------------------------------
|-7-5-4---------------------------------------------
|-7-5-4--5-7-8-8-8-10-10-10-------------------------
|-5-3-2--5-7-8-8-8-10-10-10-------------------------
|--------5-7-8-8-8-10-10-10-------------------------


Repeat the above twice and then this slow part comes up:

 {________________________________PM_______________________________}
|---------------------------------------------------------------------
|---8-7-8-7-8-7-7----6-5-6-5-6-5-5----4-3-4-3-4-3-3----3-2-3-2-3-2-2--
|--7------7-----7---5------5-----5---3------3-----3---2------2-----2--
|-7----------------5----------------3----------------2----------------
|---------------------------------------------------------------------
|---------------------------------------------------------------------

This is the hard part after the slow part:

  {_____________________________PM____________________________}
|---------------------------------------------------------------------
|---------------------------------------------------------------------
|---------------------------------------------------------------5-5-5-
|-0-0-3-3-3-0-0-3-3-3-0-0-3-3-3-0-0-3-3-3-0-0-3-3-3-0-0-3-3-3-0-5-5-5-
|-0-0-3-3-3-0-0-3-3-3-0-0-3-3-3-0-0-3-3-3-0-0-3-3-3-0-0-3-3-3-0-3-3-3-
|-0-0-3-3-3-0-0-3-3-3-0-0-3-3-3-0-0-3-3-3-0-0-3-3-3-0-0-3-3-3-0-------



	That's all of the parts to it, just repeat most of them again and
 thats it.
Comments