System Of A Down - Snowblind Chords & Tabs

 

Snowblind Chords & Tabs

System Of A Down Chords & Tabs

Version: 1 Type: Tab 0 ratings
1 star 2 stars 3 stars 4 stars 5 stars
comments

Snowblind Tab

|---------------------------------------------------
|---------------------------------------------------
|-------------------------------333333-555555-------
|-00000-22222-333333-------000--333333-555555-------
|--------------------33333------111111-333333-------
|---------------------------------------------------



                           {___PM__}
|---------------------------------------------------
|---------------------------------------------------
|---------------------------------------------------
|-------------------------3-------------------------
|5-5-3-5-3-3-3-3-3-3-3-1----------------------------
|---------------------------------------------------



|---------------------------------------------------
|---------------------------------------------------
|-7-5-4---------------------------------------------
|-7-5-4--5-7-8-8-8-10-10-10-------------------------
|-5-3-2--5-7-8-8-8-10-10-10-------------------------
|--------5-7-8-8-8-10-10-10-------------------------

[ Tab from: http://www.guitartabs.cc/tabs/s/system_of_a_down/snowblind_tab.html ]
Repeat the above twice and then this slow part comes up:

 {________________________________PM_______________________________}
|---------------------------------------------------------------------
|---8-7-8-7-8-7-7----6-5-6-5-6-5-5----4-3-4-3-4-3-3----3-2-3-2-3-2-2--
|--7------7-----7---5------5-----5---3------3-----3---2------2-----2--
|-7----------------5----------------3----------------2----------------
|---------------------------------------------------------------------
|---------------------------------------------------------------------

This is the hard part after the slow part:

  {_____________________________PM____________________________}
|---------------------------------------------------------------------
|---------------------------------------------------------------------
|---------------------------------------------------------------5-5-5-
|-0-0-3-3-3-0-0-3-3-3-0-0-3-3-3-0-0-3-3-3-0-0-3-3-3-0-0-3-3-3-0-5-5-5-
|-0-0-3-3-3-0-0-3-3-3-0-0-3-3-3-0-0-3-3-3-0-0-3-3-3-0-0-3-3-3-0-3-3-3-
|-0-0-3-3-3-0-0-3-3-3-0-0-3-3-3-0-0-3-3-3-0-0-3-3-3-0-0-3-3-3-0-------



Comments