System Of A Down - Shimmy Chords & Tabs

 

Shimmy Chords & Tabs

System Of A Down Chords & Tabs

Version: 7 Type: Tab 0 ratings
1 star 2 stars 3 stars 4 stars 5 stars
comments

Shimmy Tab

Tuning: Whole step down, then drop D. 
So from low to high it's: CGCFAD

Intro: (quite a few times)(palm muted)
|------------------------------------|
|------------------------------------|
|------------------------------------|
|------------------------------------|
|------------------------------------|
|---3-2-0-2-3-2-0-2-3-2-0-2-3-2-0-2--|

Intro Part II:
|----------------------------|
|----------------------------|
|----------------------------|
|---2-2-2-2-2-2/6-6-6-6-6-6--|
|---2-2-2-2-2-2/6-6-6-6-6-6--|
|---2-2-2-2-2-2/6-6-6-6-6-6--|

Verse:
|---------------------------------|------------------|
|---------------------------------|------------------|
|---------------------------------|------------------|
|---------------------------------|-2-3-2-0----------|
|-3-2-0-2-3-2-0-2-3-2-0-2-3-2-0-2-|---------3-2-0----|
|-3-2-0-2-3-2-0-2-3-2-0-2-3-2-0-2-|---------------6--|

|---------------------------------|---------------------|
|---------------------------------|---------------------|
|---------------------------------|-----1-2-1h2p1-------|
|---------------------------------|-2-3-----------3-2-0-|
|-3-2-0-2-3-2-0-2-3-2-0-2-3-2-0-2-|---------------------|
|-3-2-0-2-3-2-0-2-3-2-0-2-3-2-0-2-|---------------------|

|---------------------------------|------------------|
|---------------------------------|------------------|
|---------------------------------|------------------|
|---------------------------------|-2-3-2-0----------|
|-3-2-0-2-3-2-0-2-3-2-0-2-3-2-0-2-|---------3-2-0----|
|-3-2-0-2-3-2-0-2-3-2-0-2-3-2-0-2-|---------------6--|
[ Tab from: http://www.guitartabs.cc/tabs/s/system_of_a_down/shimmy_tab_ver_7.html ]
|---------------------------------|--------------------------------------|
|---------------------------------|--------------------------------------|
|---------------------------------|-----1-2-1h2p1------------------------|
|---------------------------------|-2-3-----------3-2-3-2-0--------------|
|-3-2-0-2-3-2-0-2-3-2-0-2-3-2-0-2-|-------------------------3-2-3-2-0----|
|-3-2-0-2-3-2-0-2-3-2-0-2-3-2-0-2-|-----------------------------------6--|


Chorus:                   3x
|----------------------------||--------------------------|
|----------------------------||--------------------------|
|----------------------------||--------------------------|
|---2-2-2-2-2-2/6-6-6-6-6-6--||-2-2-2-2-2-2-6-6-6-6-6----|
|---2-2-2-2-2-2/6-6-6-6-6-6--||-2-2-2-2-2-2-6-6-6-6-6----|
|---2-2-2-2-2-2/6-6-6-6-6-6--||-2-2-2-2-2-2-6-6-6-6-6----|

Repeat Verse
Repeat Chorus

Interlude:
|---------------|---------------|
|---------------|---------------|
|---------------|---------------|
|-2-2----2-2----|-2-2----2-2----|
|-2-2----2-2----|-2-2----2-2----|
|-2-2----2-2----|-2-2----2-2----|

|-------------|-------------|
|-------------|-------------|
|-------------|-------------|
|-22-22-22-22-|-22-22-22222-|
|-22-22-22-22-|-22-22-22222-|
|-22-22-22-22-|-22-22-22222-|

Interlude Part II:(4x) 
|------------------|
|------------------|
|------------------|
|-2-3-2-0----------|
|---------3-2-0----|
|---------------6--|

Outro: (4x)
|------------------------------------|
|------------------------------------|
|------------------------------------|
|------------------------------------|
|------------------------------2-----|
|---3-2-0-2-3-2-0-2-3-2-0-2-3--2-----|
Comments