System Of A Down - Shimmy Chords & Tabs

 

Shimmy Chords & Tabs

System Of A Down Chords & Tabs

Version: 2 Type: Tab 2 ratings
1 star 2 stars 3 stars 4 stars 5 stars
comments

Shimmy Tab

played in drop D tuing

played in distortion


intro
e----------------------------------------
b----------------------------------------
g----------------------------------------
d----------------------------------------
a----------------------------------------
e3202320232023202320232023202320232023202




e----------------------------------------
b----------------------------------------
g----------------------------------------
d3202320232023202320232023202320232023202
a3202320232023202320232023202320232023202
e3202320232023202320232023202320232023202


chorus
e----------------------------------------
b----------------------------------------
g----------------------------------------
d-32222--76666---------------------------
a-32222--76666---------------------------
e-32222--76666---------------------------play this 4 times



main verse
e----------------------------------------
b----------------------------------------
g----------------------------------------
d-3202320232023--------------------------
a-3202320232023--7875320------------------------
e-3202320232023----------6----------------
[ Tab from: http://www.guitartabs.cc/tabs/s/system_of_a_down/shimmy_tab_ver_2.html ]
e------------------------------------------
b------------------------------------------
g------------------------------------------
d-3202320232023----67 6h7p6----------------
a-3202320232023--78---------875------------
e-3202320232023----------------------------


e----------------------------------------
b----------------------------------------
g----------------------------------------
d-3202320232023--------------------------
a-3202320232023--7875320------------------------
e-3202320232023----------6----------------

e-------------------------------------------------
b-------------------------------------------------
g-------------------------------------------------
d-3202320232023----67 6h7p6-----------------------
a-3202320232023--78---------875---7875320---------
e-3202320232023----------------------------6------



then play chorus again

after this play main verse then chorus again



then play this interlude 4times
-------------------------------
-------------------------------
-------------------------------
-------------------------------
7875320-------------------------------
-------6------------------------


then play this outro 4times
e---------------------------------------------------
b---------------------------------------------------
g---------------------------------------------------
d-3202320232022-2-----------------------------------
a-3202320232022-2-----------------------------------
e-3202320232022-2----------------------------------





Comments