System Of A Down - Shimmy Chords & Tabs

 

Shimmy Chords & Tabs

System Of A Down Chords & Tabs

Version: 1 Type: Tab 1 rating
1 star 2 stars 3 stars 4 stars 5 stars
comments

Shimmy Tab

   
Song: "Shimmy"
Artist: System of A Down
Album: Toxicity
Transcribed By: Bryan Bramlett (bryanmb87@aol.com)

Tuning: Drop D, 1 Step Down (C,G,C,F,A,D)

INTRO: (palm mute)
|---------------------------------|
|---------------------------------|
|---------------------------------|
|---------------------------------|
|---------------------------------|
|-3-2-0-2-3-2-0-2-3-2-0-2-3-2-0-2-|

MAIN RIFF:
|--------------------------------------------|
|--------------------------------------------|
|--------------------------------------------|
|-3-2-2-2-2--7-6-6-6-6--3-2-2-2-2--7-6-6-6-6-|
|-3-2-2-2-2--7-6-6-6-6--3-2-2-2-2--7-6-6-6-6-|
|-3-2-2-2-2--7-6-6-6-6--3-2-2-2-2--7-6-6-6-6-|

VERSE:
|--------------------------------------------|
|--------------------------------------------|
|--------------------------------------------|
|-------------------------2--2-3-2-0---------|
|-3-2-0-2-3-2-0-2-3-2-0-2-2----------3-2-0---|
|-3-2-0-2-3-2-0-2-3-2-0-2-2----------------6-|
PM. . . . . . . . . . . . 

|------------------------------------------------|
|------------------------------------------------|
|--------------------------------1-2-1h2p1-------|
|-------------------------2--2-3-----------3-2-0-|
|-3-2-0-2-3-2-0-2-3-2-0-2-2----------------------|
|-3-2-0-2-3-2-0-2-3-2-0-2-2----------------------|
PM. . . . . . . . . . . . 

|--------------------------------------------|
|--------------------------------------------|
|--------------------------------------------|
|-------------------------2--2-3-2-0---------|
|-3-2-0-2-3-2-0-2-3-2-0-2-2----------3-2-0---|
|-3-2-0-2-3-2-0-2-3-2-0-2-2----------------6-|
PM. . . . . . . . . . . . 
[ Tab from: http://www.guitartabs.cc/tabs/s/system_of_a_down/shimmy_tab.html ]
|----------------------------------------------------------------|
|----------------------------------------------------------------|
|--------------------------------1-2-1h2p1-----------------------|
|-------------------------2--2-3-----------3-2-3-2-0-------------|
|-3-2-0-2-3-2-0-2-3-2-0-2-2--------------------------3-2-3-2-0---|
|-3-2-0-2-3-2-0-2-3-2-0-2-2------------------------------------6-|
PM. . . . . . . . . . . . 

CHORUS:
|----------------------------------------------|
|----------------------------------------------|
|----------------------------------------------|
|-2-2--6-6--2-2--6-6--2-2--6-6--2-2--7-6-6-6-6-|
|-2-2--6-6--2-2--6-6--2-2--6-6--2-2--7-6-6-6-6-|
|-2-2--6-6--2-2--6-6--2-2--6-6--2-2--7-6-6-6-6-|
PM                                   . . . . 

CHORUS 2:
|----------------------------------------|
|----------------------------------------|
|----------------------------------------|
|-2-2--6-6--2-2--6-6--2-2--6-6--2-2--6-6-|
|-2-2--6-6--2-2--6-6--2-2--6-6--2-2--6-6-|
|-2-2--6-6--2-2--6-6--2-2--6-6--2-2--6-6-|

BRIDGE:
|-------------------------------------------------|
|-------------------------------------------------|
|-------------------------------------------------|
|-3-2---3-2---3-2---3-2---32-32-32-32-32-32-32222-|
|-3-2---3-2---3-2---3-2---32-32-32-32-32-32-32222-|
|-3-2---3-2---3-2---3-2---32-32-32-32-32-32-32222-|
PM                                          ....

INTERLUDE: (palm mute, play several times then grad. release)
|-----------------|
|-----------------|
|-----------------|
|-2-3-2-0---------|
|---------3-2-0---|
|---------------6-|

OUTRO:
|----------------------------|
|----------------------------|
|----------------------------|
|-3-2-0-2-3-2-0-2-3-2-0-2--2-|
|-3-2-0-2-3-2-0-2-3-2-0-2--2-|
|-3-2-0-2-3-2-0-2-3-2-0-2--2-|

Comments