System Of A Down - Shimmy Chords & Tabs

 

Shimmy Chords & Tabs

System Of A Down Chords & Tabs

Version: 3 Type: Bass Tab 0 ratings
1 star 2 stars 3 stars 4 stars 5 stars
comments

Shimmy Bass Tab

   
----------------------------------------------------------------------------
			    Shimmy - S.O.A.D
----------------------------------------------------------------------------

Tabbed By : a crazy fairy!!8)7
e-mail: Diddlefairy@hotmail.com

Tuning: Drop D
low to high: c-g-c-f

I learned it from the master himself!!

Intro
f|-------------------------------------------------------------------------|
c|-------------------------------------------------------------------------|
g|-------------------------------------------------------------------------|
c|3\0-3----3\0-3----3\0-3----3\0-3----3\0-3----3\0-3----3\0-3----3\0-3-----|


f|-------------------------------------------------------------------------|
c|-------------------------------------------------------------------------|
g|-------------------------------------------------------------------------|
c|3-2-2-2--2-2--7-6-6-6--6-6-----------------------------------------------|

Verse:

f|-------------------------------------------------------------------------|
c|-------------------------------------------------------------------------|
g|----------------------------7-8-7-5-3-2-0--------------------------------|
c|3-2-0-2-3-2-0-2-3-2-0-2-3-2---------------6------------------------------|

f|-------------------------------------------------------------------------|
c|--------------------------------6-7-676----------------------------------|
g|----------------------------7-8---------8-7-5----------------------------|
c|3-2-0-2-3-2-0-2-3-2-0-2-3-2----------------------------------------------|

f|-------------------------------------------------------------------------|
c|-------------------------------------------------------------------------|
g|----------------------------7-8-7-5-3-2-0--------------------------------|
c|3-2-0-2-3-2-0-2-3-2-0-2-3-2--------------6-------------------------------|
[ Tab from: http://www.guitartabs.cc/tabs/s/system_of_a_down/shimmy_btab_ver_3.html ]
f|-------------------------------------------------------------------------|
c|--------------------------------6-7-676----------------------------------|
g|----------------------------7-8---------8-7-8-7-5-3-2-3-2-0--------------|
c|3-2-0-2-3-2-0-2-3-2-0-2-3-2---------------------------------6------------|

  
f|-------------------------------------------------------------------------|
c|-------------------------------------------------------------------------|
g|-------------------------------------------------------------------------|
c|3-2--2---2/7-6--6---6\3-2--2---2/7--6----6---6\--------------------------|

 shimmy shimmy shimmy   trough the break of dawn,_____  yeah,_____
f|-------------------------------------------------------------------------|
c|-------------------------------------------------------------------------|
g|-------------------------------------------------------------------------|
c|3---2---------2----------2-----/----7---6------6------------6/-----------|


 1__________________           2_____________________
f|------------------|--------------------------------|---------------------|
c|------------------|--------------------------------|---------------------|
g|------------------|--------------------------------|---------------------|
c|3-2--2-2/7-6-6-6-6|-------3-2--2--2/7-6--6------6--|---------------------|

f|-------------------------------------------------------------------------|
c|-------------------------------------------------------------------------|
g|-------------------------------------------------------------------------|
c|3-2---3-2---3-2---3-2---3-2---3-2---3-2-2-2-2----------------------------|

Interlude2x
f|--guitar-|---------------------------------------------------------------|
c|---------|---------------------------------------------------------------|
g|---------|7-8-7-5-3-2-0---7-8-7-5-3-2-0---7-8-7-5-3-2-0---7-8-7-5-3-2-0--|
c|--part---|--------------6---------------6---------------6---------------6|

outro:
f|-------------------------------------------------------------------------|
c|-------------------------------------------------------------------------|
g|-------------------------------------------------------------------------|
c|3-2-0-2-3-2-0-2-3-2-0-2-3-2----------------------------------------------|

I hope you will respect this tabcause it's my first on and I am a slow typer
sow it tooked me a lot of time to make this tab!!8)7
Comments