System Of A Down - Shimmy Chords & Tabs

 

Shimmy Chords & Tabs

System Of A Down Chords & Tabs

Version: 2 Type: Bass Tab 0 ratings
1 star 2 stars 3 stars 4 stars 5 stars
comments

Shimmy Bass Tab

G|-------------------------|
D|-------------------------|
A|-------------------------|        x2
D|---0-00-0-00-0-00-0-00---|


G|---------------------------------|
D|---------------------------------|
A|---------------------------------|    x2
E|---0-00-0-4-44-4-0-00-0-4-44-4---|


G|---------------------|
D|---------------------|
A|---------------------|     x4
E|---0000000000000-0---|

[ Tab from: http://www.guitartabs.cc/tabs/s/system_of_a_down/shimmy_btab_ver_2.html ]
G|----------------------|
D|----------------------|
A|----------------------|   x2
E|---0-0-4-4-0-0-4-4----|


G|--------------------------------|
D|--------------------------------|
A|--------------------------------|   x1
E|---0--0--0--0--00-00-00-00-00---|


G|---------------------|
D|---------------------|
A|---5-6-5-3-1---------|   x4
E|-------------5-3-2---|

Outro (1:41)
G|----------------|
D|----------------|
A|----------------|  
E|---0000000000---|
Comments