System Of A Down - Shame Chords & Tabs

 

Shame Chords & Tabs

System Of A Down Chords & Tabs

Version: 4 Type: Tab 0 ratings
1 star 2 stars 3 stars 4 stars 5 stars
comments

Shame Tab

Artist - System Of A Down
Song - Shame (unreleased, collaberation with Wu Tang Clan)
An oldie, but still brilliant, their best unreleased song.
Tuning - Drop C

INTRO and (Part of 1st) VERSE
--10--10--10--10-11---|
--------10--10--------|
----------------------|  x 12
----------------------|
----------------------|
----------------------|

Part 2 VERSE (All Palm Muted)
-------------|
-------------|
-------------|
-0-0-0-0-0---| (x8) (VERSE 2 IS JUST THIS EIGHT TIMES, NO PART 1 OR 3)
-0-0-0-0-0---|
-0-0-0-0-0---|

Part 3 VERSE 1 ONLY
-10--10--10--10-11-------10--10--10--10-11-|
-10--10--10--10-10---------10--10--10------|
-------------------------------------------|
-------------------(x4)--------------------| (x4)
-------------------------------------------|
-------------------------------------------|
[ Tab from: http://www.guitartabs.cc/tabs/s/system_of_a_down/shame_tab_ver_4.html ]
CHORUS
----------------------------|
----------------------------|
----------7-8---------------|
-0--0--0--7-8---------------| (x8)
-0--0--0--5-6---------------|
-0--0--0--------------------|

BRIDGE (AFTER 8 BARS OF BASS PART) (PALM MUTED, BUT NEAR THE END RELEASE PALM MUTE)
-----------------------------------|
-----------------------------------|
-----------------------------------|
-7--8--11--12----------------------| Fast picking while palm muted, 16 times
-----------------------------------| each note. Play bridge twice.
-----------------------------------|

OUTRO
-----------------------------------|
-----------------------------------|
-------------7-8---------7-8-10-8--|
-0-0-0-0-0-0-7-8-0-0-0-0-7-8-10-8--| (x2) Basically a faster chorus.
-0-0-0-0-0-0-5-8-0-0-0-0-5-6-8--6--|
-0-0-0-0-0-0-----0-0-0-0-----------|

ORDER:-
INTRO and Part 1 of VERSE 1
PART 2 VERSE 1
PART 3 VERSE 1
CHORUS
VERSE 2
CHORUS
BRIDGE
CHORUS
OUTRO

Hope its ok, any comments or corrections, just send them to coolandcrazy@hotmail.com.

Shotgun Joe
Comments