System Of A Down - Science Chords & Tabs

 

Science Chords & Tabs

System Of A Down Chords & Tabs

Version: 7 Type: Tab 0 ratings
1 star 2 stars 3 stars 4 stars 5 stars
comments

Science Tab

   
    ___________________
   / System of a Down / This very provocative song is SOAD’s opinion of
  / Science          /  how the science has gone too far with artificial
 / Toxicity         /   creation of life such as genetic engineering and
/__________________/    genetic modification.



Gtr I (C G C F A D) – Lead, Heavy Overdrive Electric
Gtr II (C G C F A D) – Backup, Heavy Distorted Electric
Gtr III (D G C F A D) – Clean Steel String
Gtr IV (D G C F A D) – Clean Electric
Gtr V (D G C F A D) – Synthesized Electric


 Intro:
 Gtr I
 4/4
                PM------------------------------|               PM------------------------------|
   S       +S   S S T T S S S T T S S S T T S S S   S      +S   S S T T S S S T T S S S T T S S S   S
|------|-----------------------------------------------|-----------------------------------------------|
|------|-----------------------------------------------|-----------------------------------------------|
|------|-----------------------------------------------|-----------------------------------------------|
|-<24>-|-(<24>)-0-0-0-0-0-0-0-0-0-0-0-0-0-0-0-0-0-<24>-|-(<24>)-0-0-0-0-0-0-0-0-0-0-0-0-0-0-0-0-0-<24>-|
|------|-----------------------------------------------|-----------------------------------------------|
|------|-----------------------------------------------|-----------------------------------------------|
       |-Rhy Fig 1


         PM----------|        PM----------|               PM|        PM|        PM|
    +S   S S T T S S S   E    S S T T S S S   S      +S   S S   E    S S   E    S S   E    S S S
|------------------------------------------------|-----------------------------------------------|
|------------------------------------------------|-----------------------------------------------|
|------------------------------------------------|---------------------------------------------7-|
|-(<24>)-0-0-0-0-0-0-0-<24>---0-0-0-0-0-0-0-<24>-|-(<24>)-0-0-<24>---0-0-<24>---0-0-<24>---5h7-7-|
|------------------------------------------------|-----------------------------------------5-5-5-|
|------------------------------------------------|---------------------------------------------0-|
                                                                                   end Rhy Fig 1-|


 Gtr I, II
      PM--------|     PM----------|         PM--------|
  +S  S S S S S S E   S S S S S S S S   +S  S S S S S S E    S S S  S S S S
|-------------------------------------|-------------------------------------|
|-------------------------------------|-------------------------------------|
|-(7)-------------7-----------------7-|-(7)-------------------------------7-|
|-(7)-------------7-----------------7-|-(7)-------------------------------7-|
|-(5)-0-0-0-0-0-0-5---0-0-0-0-0-0-0-5-|-(5)-0-0-0-0-0-0--------7-8-10-8-7-5-|
|-(0)-0-0-0-0-0-0-0---0-0-0-0-0-0-0-0-|-(0)-0-0-0-0-0-0-8---10------------0-|
|-Rhy Fig 2


      PM--------|     PM----------|         PM--------|
  +S  S S S S S S E   S S S S S S S S   +S  S S S S S S E    S S S  S S S S
|-------------------------------------|-------------------------------------|
|-------------------------------------|-------------------------------------|
|-(7)-------------7-----------------7-|-(7)---------------------------------|
|-(7)-------------7-----------------7-|-(7)---------------------------------|
|-(5)-0-0-0-0-0-0-5---0-0-0-0-0-0-0-5-|-(5)-0-0-0-0-0-0--------7-8-10-8-7-6-|
|-(0)-0-0-0-0-0-0-0---0-0-0-0-0-0-0-0-|-(0)-0-0-0-0-0-0-8---10--------------|
                        end Rhy Fig 2-|




 1st Verse
 Gtr I
      PM------------------------------|         PM------------------------------|
  +S  S S T T S S S T T S S S T T S S S S   +S  S S T T S S S T T S S S T T S S S S
|-----------------------------------------|-----------------------------------------|
|-----------------------------------------|-----------------------------------------|
|-----------------------------------------|-----------------------------------------|
|-----------------------------------------|-----------------------------------------|
|-(6)-5-5-5-5-5-5-5-5-5-5-5-5-5-5-5-5-5-6-|-(6)-5-5-5-5-5-5-5-5-5-5-5-5-5-5-5-5-5-6-|
|-----------------------------------------|-----------------------------------------|


      PM----------|     PM------------|         PM|     PM|     PM|     PM|
  +S  S S T T S S S E   S S T T S S S S S   +S  S S E   S S E   S S E   S S   S
|-----------------------------------------|--------------------------------------|
|-----------------------------------------|--------------------------------------|
|-----------------------------------------|--------------------------------------|
|-----------------------------------------|---------------------------------<24>-|
|-(6)-5-5-5-5-5-5-5-6---5-5-5-5-5-5-5-5-6-|-(6)-5-5-6---5-5-6---5-5-6---5-5------|
|-----------------------------------------|--------------------------------------|




 2nd Verse
Rhy Fig 1




 Chorus
Rhy Fig 2, end on:

      PM--------|
  +S  S S S S S S E    S S S  S S S S
|-------------------------------------|
|-------------------------------------|
|-(7)---------------------------------|
|-(7)---------------------------------|
|-(5)-0-0-0-0-0-0--------7-8-10-8-7-6-|
|-(0)-0-0-0-0-0-0-8---10--------------|




 3rd Verse
 Gtr I
      PM------------------------------|         PM------------------------------|
  +S  S S T T S S S T T S S S T T S S S S   +S  S S T T S S S T T S S S T T S S S   S
|-----------------------------------------|--------------------------------------------|
|-----------------------------------------|--------------------------------------------|
|-----------------------------------------|--------------------------------------------|
|-----------------------------------------|---------------------------------------<24>-|
|-(6)-5-5-5-5-5-5-5-5-5-5-5-5-5-5-5-5-5-6-|-(6)-5-5-5-5-5-5-5-5-5-5-5-5-5-5-5-5-5------|
|-----------------------------------------|--------------------------------------------|


         PM----------|        PM----------|               PM|        PM|        PM|
    +S   S S T T S S S   E    S S T T S S S   S      +S   S S   E    S S   E    S S   E    S S S
|------------------------------------------------|-----------------------------------------------|
|------------------------------------------------|-----------------------------------------------|
|------------------------------------------------|---------------------------------------------7-|
|-(<24>)-0-0-0-0-0-0-0-<24>---0-0-0-0-0-0-0-<24>-|-(<24>)-0-0-<24>---0-0-<24>---0-0-<24>-------7-|
|------------------------------------------------|-----------------------------------------5-5-5-|
|------------------------------------------------|---------------------------------------------0-|




 Chorus
Rhy Fig 2, end on:

      PM--------|
  +S  S S S S S S E    S S S  S S S S
|-------------------------------------|
|-------------------------------------|
|-(7)---------------------------------|
|-(7)-------------------------------0-|
|-(5)-0-0-0-0-0-0--------7-8-10-8-7-0-|
|-(0)-0-0-0-0-0-0-8---10------------0-|




 Bridge
 Gtr I, II
  +Q..            S +Q..            S   +Q..            E    S S S  S S S S
|-------------------------------------|-------------------------------------|
|-------------------------------------|-------------------------------------|
|-------------------------------------|-------------------------------------|
|-(0)-------------2-(2)-------------3-|-(3)-------------------------------0-|
|-(0)-------------2-(2)-------------3-|-(3)--------------------7-8-10-8-7-0-|
|-(0)-------------2-(2)-------------3-|-(3)-------------8---10------------0-|


  +Q..            S +Q..            S   +Q..            E    S S S  S S E 
|-------------------------------------|-------------------------------------|
|-------------------------------------|-------------------------------------|
|-------------------------------------|-------------------------------------|
|-(0)-------------2-(2)-------------3-|-(3)---------------------------------|
|-(0)-------------2-(2)-------------3-|-(3)--------------------7-8-10-8-7---|
|-(0)-------------2-(2)-------------3-|-(3)-------------8---10--------------|



[ Tab from: http://www.guitartabs.cc/tabs/s/system_of_a_down/science_tab_ver_7.html ]
 Interlude, Part 1
 Gtr I, II
  e   e   e   e   e   e   Q         e   e   e   e   e   e   Q
|---------------------------------|---------------------------------|
|---------------------------------|---------------------------------|
|---------------------------------|---------------------------------|
|---------------------------------|---------------------------------|
|-0-------0-------0---------------|-0-------0-------0---------------|
|-0-------0-------0---------------|-0-------0-------0---------------|
|
|Gtr III
| PM--------------------------------------------------------------|
| S S S S S S S S S S S S S S S S   S S S S S S S S S S S S S S S S
|---------------------------------|---------------------------------|
|---------------------------------|---------------------------------|
|-----0-2-----2-3-----2-3-5-3-2-3-|-----0-2-----2-3-----2-3-5-3-2-3-|
|-0-0-----0-0-----0-0-------------|-0-0-----0-0-----0-0-------------|
|---------------------------------|---------------------------------|
|---------------------------------|---------------------------------|
|
|Gtr IV
| PM--------------------------------------------------------------|
| S S S S S S S S S S S S S S S S   S S S S S S S S S S S S S S S S
|-----3-5-----5-6-----5-6-8-6-5-6-|-----3-5-----5-6-----5-6-8-6-5-6-|
|-3-3-----3-3---------------------|-3-3-----3-3---------------------|
|-----------------7-7-------------|-----------------7-7-------------|
|---------------------------------|---------------------------------|
|---------------------------------|---------------------------------|
|---------------------------------|---------------------------------|


 Gtr I, II
  e   e   e   e   e   e   Q         W
|---------------------------------|---------------------------------|
|---------------------------------|---------------------------------|
|---------------------------------|---------------------------------|
|---------------------------------|---------------------------------|
|-0-------0-------0---------------|---------------------------------|
|-0-------0-------0---------------|---------------------------------|
|
|Gtr III
| PM--------------------------|
| S S S S S S S S S S S S S S E     E   S S E.    E   E   S S S S S
|---------------------------------|---------------------------------|
|---------------------------------|---------------------------------|
|-----0-2-----2-3-----2-3-5-3-2---|-5-------------------------------|
|-0-0-----0-0-----0-0-------------|-x-----3-5~----3---2---2-2-3-2---|
|---------------------------------|-3---3-------------------------3-|
|---------------------------------|---------------------------------|
|
|Gtr IV
| PM--------------------------|
| S S S S S S S S S S S S S S E     E   S S E.    E   E   S S S S S
|-----3-5-----5-6-----5-6-8-6-5---|---------------------------------|
|-3-3-----3-3---------------------|-6---5-6-8~----6---5---5-5-6-5---|
|-----------------7-7-------------|-7-----------------------------5-|
|---------------------------------|-0-------------------------------|
|---------------------------------|---------------------------------|
|---------------------------------|---------------------------------|
|
|Gtr V
| W                                 E   S S E.    E   E   S S S S S
|---------------------------------|-----0-1-3~----1---0---0-0-1-0---|
|---------------------------------|-1-----------------------------1-|
|---------------------------------|---------------------------------|
|---------------------------------|---------------------------------|
|---------------------------------|---------------------------------|
|---------------------------------|---------------------------------|




 Interlude, Part 2
 Gtr III
    e   S S e.    e   S e    e   S S   e   S S e.    e   S e   e   S S
||-----------------------------------|---------------------------------|
||o----------------------------------|---------------------------------|
||------0-0-2-----3---0-2----2---2-2-|-----0-0-2-----5---3-2---2---2-2-|
||--0--------------------------------|-0-------------------------------|
||o----------------------------------|---------------------------------|
||-----------------------------------|---------------------------------|
|
|Gtr IV, V
|   e   S S e.    e   S e    e   S S   e   S S e.    e   S e   e   S S
||------3-3-5-----6---3-5----5---5-5-|-----3-3-5-----8---6-5---5---5-5-|
||o-3--------------------------------|-3-------------------------------|
||-----------------------------------|---------------------------------|
||-----------------------------------|---------------------------------|
||o----------------------------------|---------------------------------|
||-----------------------------------|---------------------------------|


  E   S S E.    E   S E    E   S S   E   S S E.    E   E   S S S S S  2x
|----------------------------------|----------------------------------||
|----------------------------------|---------------------------------o||
|-----0-0-2-----3---0-2----2---2-2-|----------------------------------||
|-0--------------------------------|-------3-5~----3---2---2-2-3-2----||
|----------------------------------|-3---3-------------------------3-o||
|----------------------------------|----------------------------------||
|
| E   S S E.    E   S E    E   S S   E   S S E.    E   E   S S S S S  2x
|-----3-3-5-----6---3-5----5---5-5-|-----0-1-3~----1---0---0-0-1-0----||
|-3--------------------------------|-1-----------------------------1-o||
|----------------------------------|----------------------------------||
|----------------------------------|----------------------------------||
|----------------------------------|---------------------------------o||
|----------------------------------|----------------------------------||


 Gtr III
  E   S S E.    E   S E    E   S S   +S  S E   E   S E   S E   E   S S
|----------------------------------|-----------------------------------|
|----------------------------------|-----------------------------------|
|-----0-0-2-----3---0-2----2---2-3-|-(3)-0-2---2---2-3---0-2----2--2-2-|
|-0--------------------------------|-----------------------------------|
|----------------------------------|-----------------------------------|
|----------------------------------|-----------------------------------|
|
|Gtr IV, V
| E   S S E.    E   S E    E   S S   +S  S E   E   S E   S E   E   S S
|-----3-3-5-----6---3-5----5---5-6-|-(6)-3-5---5---5-6---3-5---5---5-5-|
|-3--------------------------------|-----------------------------------|
|----------------------------------|-----------------------------------|
|----------------------------------|-----------------------------------|
|----------------------------------|-----------------------------------|
|----------------------------------|-----------------------------------|
|
|Gtr I
| W                                  H                 Q..           S
|----------------------------------|-----------------------------------|
|----------------------------------|-----------------------------------|
|----------------------------------|-----------------------------------|
|----------------------------------|-----------------------------------|
|----------------------------------|---------------------------------6-|
|----------------------------------|-----------------------------------|


 Gtr I
      PM----------|     PM------------|               PM|        PM|        PM|        PM|
  +S  S S T T S S S E   S S T T S S S S   S      +S   S S   E    S S   E    S S   E    S S
|--------------------------------------------|-----------------------------------------------|
|--------------------------------------------|-----------------------------------------------|
|--------------------------------------------|---------------------------------------------7-|
|---------------------------------------<24>-|-(<24>)-0-0-<24>---0-0-<24>---0-0-<24>---0-0-7-|
|-(6)-5-5-5-5-5-5-5-6---5-5-5-5-5-5-5-5------|---------------------------------------------5-|
|--------------------------------------------|---------------------------------------------0-|




 Chorus
Rhy Fig 2, end on:

      PM--------|
  +S  S S S S S S E    S S S  S S S S
|-------------------------------------|
|-------------------------------------|
|-(7)---------------------------------|
|-(7)---------------------------------|
|-(5)-0-0-0-0-0-0--------7-8-10-8-7-5-|
|-(0)-0-0-0-0-0-0-8---10--------------|




 Outro
 Gtr I
      PM--------------|     PM--------------|         PM--------------|
  +S  T T S T T S T T S E   T T S T T S T T S S   +S  T T S T T S T T S E    S S S  S S S S
|-----------------------------------------------|-------------------------------------------|
|-----------------------------------------------|-------------------------------------------|
|-----------------------------------------------|-------------------------------------------|
|-----------------------------------------------|-------------------------------------------|
|-(5)-5-5-5-5-5-5-5-5-5-7---7-7-7-7-7-7-7-7-7-8-|-(8)-8-8-8-8-8-8-8-8-8--------7-8-10-8-7-5-|
|-----------------------------------------------|-----------------------8---10--------------|


      PM--------------|     PM--------------|         PM--------------|
  +S  T T S T T S T T S E   T T S T T S T T S S   +S  T T S T T S T T S E    S S S  S S S S
|-----------------------------------------------|-------------------------------------------|
|-----------------------------------------------|-------------------------------------------|
|-----------------------------------------------|-------------------------------------------|
|-----------------------------------------------|-----------------------------------------0-|
|-(5)-5-5-5-5-5-5-5-5-5-7---7-7-7-7-7-7-7-7-7-8-|-(8)-8-8-8-8-8-8-8-8-8--------7-8-10-8-7-0-|
|-----------------------------------------------|-----------------------8---10------------0-|


 Gtr I, II
  +Q..            S +Q..            S   +Q..            E    S S S  S S S S
|-------------------------------------|-------------------------------------|
|-------------------------------------|-------------------------------------|
|-------------------------------------|-------------------------------------|
|-(0)-------------2-(2)-------------3-|-(3)-------------------------------0-|
|-(0)-------------2-(2)-------------3-|-(3)--------------------7-8-10-8-7-0-|
|-(0)-------------2-(2)-------------3-|-(3)-------------8---10------------0-|


  +Q..            S +Q..            S   +Q..            E    S S S  S S E e
|-------------------------------------|-------------------------------------|
|-------------------------------------|-------------------------------------|
|-------------------------------------|-------------------------------------|
|-(0)-------------2-(2)-------------3-|-(3)-------------------------------0-|
|-(0)-------------2-(2)-------------3-|-(3)--------------------7-8-10-8-7-0-|
|-(0)-------------2-(2)-------------3-|-(3)-------------8---10------------0-|

- 9th /October /05
Just mail me at Maitinin@gmail.com with comments, questions or corrections!
Comments