System Of A Down - Science Chords & Tabs

 

Science Chords & Tabs

System Of A Down Chords & Tabs

Version: 5 Type: Tab 0 ratings
1 star 2 stars 3 stars 4 stars 5 stars
comments

Science Tab

   
Artist: System of a Down
Song: Science
Album: Toxicity
Tabber: Sean Welch
Tuning: CGCFAD
Hey all, this is my first tab, and while this isn't the exact ALBUM VERSION,
but this is what I think sounds best... oh and credit to Logan Nalbone for some parts...

OKAY here we go, this is the intro!!! YAY!! Anyhows start this out with light or
medium distortion, whichever you like. In concert, he played it in light distortion.
D-----------------------------------------------------------------------------------
A-----------------------------------------------------------------------------------
F---7-----------------------7-----------------------7---------7---------7--7--7--7--
C----00-000-00-000-00-000-00-00-000-00-000-00-000-00-00-000-00-00-000-00-00-00-00-00
G-----------------------------------------------------------------------------------
C-----------------------------------------------------------------------------------


Chorus- This is some heavy shtuff, so just keep jammin here...
D-----------------------------------------|
A-----------------------------------------|            Play
F-7-------7-------7-----------------------|           Twice!!!
C-5-00000-5-00000-5-00000-----------------|
G-5-00000-5-00000-5-00000------7-8-10-8-7-|
C---00000---00000---00000-8--10-----------|  

Verse- Given this riff for the verse, I think I can leave you guys to figure out
the second verse... don't make me wrong...
---------------------------------------------------------------------------------
---------------------------------------------------------------------------------
---------------------------------------------------------------------------------
-7-----------------------7-----------------------7---------7---------7--7--7--7--
-5-----------------------5-----------------------5---------5---------5--5--5--5--
--00-000-00-000-00-000-00-00-000-00-000-00-000-00-00-000-00-00-000-00-00-00-00-00
[ Tab from: http://www.guitartabs.cc/tabs/s/system_of_a_down/science_tab_ver_5.html ]
---------------------------------------------------------------------------------
---------------------------------------------------------------------------------
-7-----------------------7-----------------------7---------7---------7--7--7--7--
---------------------------------------------------------------------------------
---------------------------------------------------------------------------------
--00-000-00-000-00-000-00-00-000-00-000-00-000-00-00-000-00-00-000-00-00-00-00-00

Repeat Chorus

Repeat Verse

Bridge
----------------------------------|
----------------------------------|               Play
----------------------------------|              Twice!!!
-0~----2~----3~-------------------|
-0~----2~----3~---------7-8-10-8-7|
-0~----2~----3~----8--10----------|

Interlude-Riff One(remember, this isnt supposed to sound like the album version,
i just think its pretty awesome)
-------------------------------------|
-------------------------------------|             Play Twice...
-------------------------------------|
-------------------------------------|             This play twice thing is
-----10-12-12-13----10-12-15-13-12-13|            getting really redundant...
-0-12-----0-----0-12-----------------|

Interlude Riff Two- I'll give you the basics, but you guys come up with your own
beats. Stay with it if you want, but have a little fun with ur strumming pattern!
Anyhows, play this riff twice...
--------------------------------------------------------------------------|
--------------------------------------------------------------------------|
--------------------------------------------------------------------------|
----------------------5-7-8-5-7--5-7-10-8-7--5-7-8-5-7--------------------|
--5-8/10-8-7-7-8-7-5-5----------5-----------5----------5-8/10-8-7-7-8-7-5-|
-0------------------0----------0-----------0----------0------------------0|
Alright, play this once more and we go into the third riff....

Interlude Riff Three-
--------------------------|
--------------------------|
--------------------------|
---5-7-8-5-7--8-5-7--8-5-7|
--5-----------------------|
-0------------------------|

---------------------------
---------------------------
---------------7--7--7--7--
-7------7------------------
-5------5------------------
--00-000-00-000-00-00-00-00

(Chorus)

-----------------------------------------|
-----------------------------------------|
-----------------------------------------|
-7--------9-------10---------------------|
-5-55-555-7-77-777-8-88-888----7-8-10-8-7|
---------------------------8-10----------|

Play the bridge riff twice more, and end with this-

C-0
G-0
C-0

Great job, you're done!
Comments