System Of A Down - Science Chords & Tabs

 

Science Chords & Tabs

System Of A Down Chords & Tabs

Version: 3 Type: Bass Tab 0 ratings
1 star 2 stars 3 stars 4 stars 5 stars
comments

Science Bass Tab

   
Guitar Intro: no bass

Chorus Riff: x2

F|-----------------------------------------|
C|-----------------------------------------|
G|5--------5--------5--------1-0-5-7-8-7-5-|
C|--000000---000000---000000---------------|

Verse Riff: x2 The rhythm's a bit hard to pick up on, but you'll figure it out.

F|----------------------------------------------------|
C|----------------------------------------------------|
G|6-555555-6-555555-6-5555-6-5555-6-55-6-55-6-55-6-55-|
C|----------------------------------------------------|

Chorus Riff: x2

F|-----------------------------------------|
C|-----------------------------------------|
G|5--------5--------5--------1-0-5-7-8-7-5-|
C|--000000---000000---000000---------------|

Verse Riff: x2

F|----------------------------------------------------|
C|----------------------------------------------------|
G|6-555555-6-555555-6-5555-6-5555-6-55-6-55-6-55-6-55-|
C|----------------------------------------------------|

Chorus Riff: x2
[ Tab from: http://www.guitartabs.cc/tabs/s/system_of_a_down/science_btab_ver_3.html ]
F|-----------------------------------------|
C|-----------------------------------------|
G|5--------5--------5--------1-0-5-7-8-7-5-|
C|--000000---000000---000000---------------|

Interlude: x2

F|------------------------|
C|------------------------|
G|----------1-0-5-7-8-7-5-|
C|0~~2~~3~~---------------|

Second Interlude: x1

F|-----------------------|
C|-----------------------|
G|--------------------5~-|
C|0-0-0--0-0-0--0-0-0----|

Third Interlude x1

I just improv here, the bass is kinda hidden behind Daron's seductive "owaowao's" and 
guitar line. Just play some rhythm bass.

Verse Riff: x1

F|----------------------------------------------------|
C|----------------------------------------------------|
G|6-555555-6-555555-6-5555-6-5555-6-55-6-55-6-55-6-55-|
C|----------------------------------------------------|

Chorus Riff: x2

F|-----------------------------------------|
C|-----------------------------------------|
G|5--------5--------5--------1-0-5-7-8-7-5-|
C|--000000---000000---000000---------------|

Interlude: x6 or so

F|------------------------|
C|------------------------|
G|----------1-0-5-7-8-7-5-|
C|0~~2~~3~~---------------|
Comments