System Of A Down - Sad Statue Chords & Tabs

 

Sad Statue Chords & Tabs

System Of A Down Chords & Tabs

Version: 2 Type: Tab 0 ratings
1 star 2 stars 3 stars 4 stars 5 stars
comments

Sad Statue Tab

System Of A Down - Sad Statue

Tabber: Shooter

Notes: I'm not sure if it is 100% right, but it's not far from that... I dropped the 
in 2:03 - 2:24, because i did'nt

figure it out..

ENJOY THIS TAB, AND HAVE FUN! : )


INTRO:
--------------------------------------|
--------------------------------------|
--------------------------------------|
--------------------------------------|   x4
--4-4-4-4-4-4-5~----------------------|
---4-4-4-4-4-4------------------------|

---------------------------------------|
---------------------------------------|
-6--666666666666-----------------------|
-6--xxxxxxxxxxxx-----------------------|
-4--444444444444----4-4-4-4-4-4-5~-----|
---------------------4-4-4-4-4-4-------|

-----------------------------|
-----------------------------|
-6--66666666666666---7/9\7---|
-6--xxxxxxxxxxxxxx---7/9\7---|
-4--44444444444444---5/7\5---|
-----------------------------|

---------------------------------------|
---------------------------------------|
-6--666666666666-----------------------|
-6--xxxxxxxxxxxx-----------------------|
-4--444444444444----4-4-4-4-4-4-5~-----|
---------------------4-4-4-4-4-4-------|

---------------------------------------|
---------------------------------------|
-6--6666666666/4--7/9\7--7/9\7---------|
-6--xxxxxxxxxx/4--7/9\7--7/9\7---------|
-4--4444444444/2--5/7\5--5/7\5---------|
---------------------------------------|


-------------------------------|
-------------------------------|
-6--666666---------------------|
-6--666666---------------------|
-4--444444----4-4-4-4-4-4-5~---|
---------------4-4-4-4-4-4-----|
    ...... pm


-----------------------------|
-----------------------------|
-6--66666666-----7/9\7-------|
-6--66666666-----7/9\7-------|
-4--44444444-----5/7\5-------|
-----------------------------|
    ........ pm


--------------------------------|
--------------------------------|
-6--666666----------------------|
-6--666666----------------------|
-4--444444-----4-4-4-4-4-4-5~---|
----------------4-4-4-4-4-4-----|
    ...... pm

--------------------------------|
--------------------------------|
-6--6666\4-----7/9\7--7/9\7-----|
-6--6666\4-----7/9\7--7/9\7-----|
-4--4444\2-----5/7\5--5/7\5-----|
--------------------------------|
    .... pm


Verse 1:


----------------|
----------------|
-6/7/9\7--------|   x8
-6/7/9\7--------|
-4/5/7\5--------|
----------------|
 ....... pm


----------------------|
----------------------|
-6666-7--6666---------|
-6666-7--6666-3-------| x2
-4444-5--4444-3-------|
--------------5-------|


----------------|
----------------|
-6/7/9\7--------|   x8
-6/7/9\7--------|
-4/5/7\5--------|
----------------|
 ....... pm


----------------------|
----------------------|
-6666-7--6666---------|
-6666-7--6666-3-------| x2
-4444-5--4444-3-------|
--------------5-------|


PRE-CHouRS:

-------------------------------|
-------------------------------|
---------6~--4~----------------|
-2~--4~--6~--4~----------------|
-2~--4~--4~--2~----------------|
-0~--2~------------------------|


CHOURS ( now with Distort )

----------------------------------|
----------------------------------|
---------6~-----------------------|
-2~--4~--6~--2~-------------------|
-2~--4~--4~--2~-------------------|
-0~--2~------0~-------------------|


Verse 2:

----------------|
----------------|
-6/7/9\7--------|   x8
-6/7/9\7--------|
-4/5/7\5--------|
----------------|
 ....... pm


----------------------|
----------------------|
-6666-7--6666---------|
-6666-7--6666-3-------| x2
-4444-5--4444-3-------|
--------------5-------|


----------------|
----------------|
-6/7/9\7--------|   x8
-6/7/9\7--------|
-4/5/7\5--------|
----------------|
 ....... pm

[ Tab from: http://www.guitartabs.cc/tabs/s/system_of_a_down/sad_statue_tab_ver_2.html ]
----------------------|
----------------------|
-6666-7--6666---------|
-6666-7--6666-3-------| x2
-4444-5--4444-3-------|
--------------5-------|

PRE-CHouRS:

----------------------------------|
----------------------------------|
---------6~-----------------------|
-2~--4~--6~--2~-------------------|
-2~--4~--4~--2~-------------------|
-0~--2~------0~-------------------|


CHOURS ( now with Distort )

---------------------------------|
---------------------------------|
---------6~----------------------|
-2~--4~--6~-2~----2~-------------|
-2~--4~--4~-2~----2~-------------|
-0~--2~-----0~----0~-------------|


SOLO:
I have'nt figured out this yet...

Back to the intro-part:

---------------------------------------|
---------------------------------------|
-6--666666666666-----------------------|
-6--xxxxxxxxxxxx-----------------------|
-4--444444444444----4-4-4-4-4-4-5~-----|
---------------------4-4-4-4-4-4-------|

-----------------------------|
-----------------------------|
-6--66666666666666---7/9\7---|
-6--xxxxxxxxxxxxxx---7/9\7---|
-4--44444444444444---5/7\5---|
-----------------------------|

---------------------------------------|
---------------------------------------|
-6--666666666666-----------------------|
-6--xxxxxxxxxxxx-----------------------|
-4--444444444444----4-4-4-4-4-4-5~-----|
---------------------4-4-4-4-4-4-------|


---------------------------------------|
---------------------------------------|
-6--6666666666/4--7/9\7--7/9\7---------|
-6--xxxxxxxxxx/4--7/9\7--7/9\7---------|
-4--4444444444/2--5/7\5--5/7\5---------|
---------------------------------------|


-------------------------------|
-------------------------------|
-6--666666---------------------|
-6--666666---------------------|
-4--444444----4-4-4-4-4-4-5~---|
---------------4-4-4-4-4-4-----|
    ...... pm


-----------------------------|
-----------------------------|
-6--66666666-----7/9\7-------|
-6--66666666-----7/9\7-------|
-4--44444444-----5/7\5-------|
-----------------------------|
    ........ pm


-------------------------------|
-------------------------------|
-6--666666---------------------|
-6--666666---------------------|
-4--444444----4-4-4-4-4-4-5~---|
---------------4-4-4-4-4-4-----|
    ...... pm


--------------------------------|
--------------------------------|
-6--6666\4-----7/9\7--7/9\7-----|
-6--6666\4-----7/9\7--7/9\7-----|
-4--4444\2-----5/7\5--5/7\5-----|
--------------------------------|
    ....   pm


CHOURS ( now with Distort )

-------------------------------|
-------------------------------|
---------6~--------------------|
-2~--4~--6~-2~-----------------|
-2~--4~--4~-2~-----------------|
-0~--2~-----0~-----------------|


CHOURS ( now with Distort )

---------------------------------|
---------------------------------|
---------6~----------------------|
-2~--4~--6~-2~----2~-------------|
-2~--4~--4~-2~----2~-------------|
-0~--2~-----0~----0~-------------|

Outro:


--------------------------------------|
--------------------------------------|
-6--66--66--66------------------------|
-6--66--66--66------------------------|
-4--44--44--44---4-4-4-4-4-4-5~-------|
------------------4-4-4-4-4-4---------|
    ..      ..


---------------------------------|
---------------------------------|
-6--66--66--6666---7/9\7---------|
-6--66--66--6666---7/9\7---------|
-4--44--44--4444---5/7\5---------|
---------------------------------|
    ..      ....


--------------------------------------|
--------------------------------------|
-6--66--66--66------------------------|
-6--66--66--66------------------------|
-4--44--44--44---4-4-4-4-4-4-5~-------|
------------------4-4-4-4-4-4---------|
    ..      ..


---------------------------------------|
---------------------------------------|
-6--66--66--6666---7/9\7--7/9\7---6----|
-6--66--66--6666---7/9\7--7/9\7---6----|
-4--44--44--4444---5/7\5--5/7\5---4----|
---------------------------------------|
    ..      ....
Comments