System Of A Down - Roulette Chords & Tabs

 

Roulette Chords & Tabs

System Of A Down Chords & Tabs

Version: 8 Type: Tab 2 ratings
1 star 2 stars 3 stars 4 stars 5 stars
comments

Roulette Tab

Intro        Repeat 4x
D---1----1-----5-------------------------------------------------]
A--------------------5-----8-----8-----3-----5-------------------]
F----------------------------------------------------------------]
C-0---0-0--0-3---------------------------------------------------]
G----------------0-3---3/6---6-6---0-1---1/3---3-----------------]
C----------------------------------------------------------------]

 2nd Riff     Repeat 2x
D---1-----1------------------------------------------------------]
A---------------2-----2-----5-----5-----3-----5------------------]
F----------------------------------------------------------------]
C-0---0-0--------------------------------------------------------]
G-----------0-0---0-0---0-3---3-3---0-1---1/3---3----------------]
C----------------------------------------------------------------]

              Repeat 4x
D---1----1-----5-------------------------------------------------]
A--------------------5-----8-----8-----3-----5-------------------]
F----------------------------------------------------------------]
C-0---0-0--0-3---------------------------------------------------]
G----------------0-3---3/6---6-6---0-1---1/3---3-----------------]
C----------------------------------------------------------------]
[ Tab from: http://www.guitartabs.cc/tabs/s/system_of_a_down/roulette_tab_ver_8.html ]
              Repeat 4x
D---1-----1------------------------------------------------------]
A---------------2-----2-----5-----5-----3-----5------------------]
F----------------------------------------------------------------]
C-0---0-0--------------------------------------------------------]
G-----------0-0---0-0---0-3---3-3---0-1---1/3---3----------------]
C----------------------------------------------------------------]

                         SOLO   Repeat 2x
D-10-10-12-13-12-13-15-12-13-15-13-12-10-12-13-12-10-10----------]
A-------------------------------------------------------10-10-10-]
F----------------------------------------------------------------]
C----------------------------------------------------------------]
G----------------------------------------------------------------]
C----------------------------------------------------------------]

D-----------------------------------8-----------8----------8-6-6-]
A-11-13-11-10-8-10-11-10-8-8-------10-H-12-P-10-9-H-10-P-9-9-7-7-]
F----------------------------10-10-------------------------------]
C----------------------------------------------------------------]
G----------------------------------------------------------------]
C----------------------------------------------------------------]

              Repeat 4x
D---1----1-----5-------------------------------------------------]
A--------------------5-----8-----8-----3-----5-------------------]
F----------------------------------------------------------------]
C-0---0-0--0-3---------------------------------------------------]
G----------------0-3---3/6---6-6---0-1---1/3---3-----------------]
C----------------------------------------------------------------]

              Repeat 4x
D---1-----1------------------------------------------------------]
A---------------2-----2-----5-----5-----3-----5------------------]
F----------------------------------------------------------------]
C-0---0-0--------------------------------------------------------]
G-----------0-0---0-0---0-3---3-3---0-1---1/3---3----------------]
C--------------------------------------------------------------]
Comments