System Of A Down - Roulette Chords & Tabs

 

Roulette Chords & Tabs

System Of A Down Chords & Tabs

Version: 7 Type: Tab 5 ratings
1 star 2 stars 3 stars 4 stars 5 stars
comments

Roulette Tab

	
"Roulette"
-System of a Down-
Standard Tuning
	
Intro/Verse   
e|--------------------------------------------------|
B|--------------------------------------------------|
G|---8---8-----12---------7---10---10----5----7-----|
D|--------------------------------------------------|
A|--------------------------------------------------|
E|-8---88--8/11--11-(0)-6--x/9---99---9\4--4/6--6/8-| X4

Chorus
e|----------------------------------------------|
B|----------------------------------------------|
G|---8---8-----4---4-----7----7-----5-----7-----|
D|----------------------------------------------|
A|----------------------------------------------|
E|-8---88--8\3---33--3/6---66---6\4---4/6---6/8-| X4



[ Tab from: http://www.guitartabs.cc/tabs/s/system_of_a_down/roulette_tab_ver_7.html ]
Comments