System Of A Down - Roulette Chords & Tabs

 

Roulette Chords & Tabs

System Of A Down Chords & Tabs

Version: 5 Type: Tab 3 ratings
1 star 2 stars 3 stars 4 stars 5 stars
comments

Roulette Tab

Artist: System of a Down
Album: Steal This Album
Song: Roulette
Transcribed by: Natek
Tuning: Regular (EAGDBE

This is actually a pretty easy song once you get the beat down. 
Sorry I don’t have a solo to go along with this.

Intro and verse:

-----------------------------------------------------------
-----4----------4------------8---------3------6---------6--
-----------------------------------------------------------
-----------------------------------------------------------
--3------3—--3-----3-------6---------1------4----4---4-----
-----------------------------------3-----------------------
[ Tab from: http://www.guitartabs.cc/tabs/s/system_of_a_down/roulette_tab_ver_5.html ]
-----------------------------------------------------------
-----------------------------------------------------------
---------5--------------7----------------------------------
-----------------------------------------------------------
-----------------------------------------------------------
----3--4---------4--6--------------------------------------


Chorus:

-----------------------------------------------------------
-----4---------4------------3-------3----------3-------3---
-----------------------------------------------------------
-----------------------------------------------------------
--3------3---3-----3-------------------------1----1--1-----
--------------------------3----3--3----3-------------------

-----------------------------------------------------------
-----------------------------------------------------------
---------5--------------7----------------------------------
-----------------------------------------------------------
-----------------------------------------------------------
----3--4---------4--6--------------------------------------
Comments