System Of A Down - Roulette Chords & Tabs

 

Roulette Chords & Tabs

System Of A Down Chords & Tabs

Version: 4 Type: Tab 2 ratings
1 star 2 stars 3 stars 4 stars 5 stars
comments

Roulette Tab

Author/Artist: System Of A Down
Title: Roulette
Tuning: CGCFAD

Intro/Verse
|--------------------------------------------------------|
|---6-----6-------10-----5-------8-----8-----3-------5---| x4
|--------------------------------------------------------|
|--------------------------------------------------------|
|-5---5-5---5-5/8----0-3---3-3/6---6-6---6\1---1-1/3---3-|
|--------------------------------------------------------|

Chorus
|---------------------------------------------------|
|---6-----6-----2-----2-----5-----5-----3-------5---| x2
|---------------------------------------------------|
|---------------------------------------------------|
|-5---5-5---5-0---0-0---0-3---3-3---3-1---1-1/3---3-|
|---------------------------------------------------|

Pre-verse/Verse
|--------------------------------------------------------|
|---6-----6-------10-----5-------8-----8-----3-------5---| x4
|--------------------------------------------------------|
|--------------------------------------------------------|
|-5---5-5---5-5/8----0-3---3-3/6---6-6---6\1---1-1/3---3-|
|--------------------------------------------------------|

Chorus:
|---------------------------------------------------|
|---6-----6-----2-----2-----5-----5-----3-------5---| x4
|---------------------------------------------------|
|---------------------------------------------------|
|-5---5-5---5-0---0-0---0-3---3-3---3-1---1-1/3---3-|
|---------------------------------------------------|
[ Tab from: http://www.guitartabs.cc/tabs/s/system_of_a_down/roulette_tab_ver_4.html ]
Solo - Guitar 1
|--------------------------------------------------------|
|---6-----6-------10-----5-------8-----8-----3-------5---| x4
|--------------------------------------------------------|
|--------------------------------------------------------|
|-5---5-5---5-5/8----0-3---3-3/6---6-6---6\1---1-1/3---3-|
|--------------------------------------------------------|

Solo - Guitar 2
|-10---10-12-13---12-13-15---12-13-15-13--12--10--12--13-13-12-12-10---------|
|---------------------------------------------------------------------10--10-|
|----------------------------------------------------------------------------|
|----------------------------------------------------------------------------|
|----------------------------------------------------------------------------|
|----------------------------------------------------------------------------|

|----------------------------------------------6-6\5-5\3-3\1-1-|
|-10-11-13-11--10--8--10--11-11-10-10-8--------8-8\6-6\5-5\3-3-|
|--------------------------------------------------------------|
|----------------------------------------8--8------------------|
|--------------------------------------------------------------|
|--------------------------------------------------------------|

Chorus
|---------------------------------------------------|
|---6-----6-----2-----2-----5-----5-----3-------5---| x4
|---------------------------------------------------|
|---------------------------------------------------|
|-5---5-5---5-0---0-0---0-3---3-3---3-1---1-1/3---3-|
|---------------------------------------------------|

Verse/Outro
|--------------------------------------------------------|
|---6-----6-------10-----5-------8-----8-----3-------5---| x4
|--------------------------------------------------------|
|--------------------------------------------------------|
|-5---5-5---5-5/8----0-3---3-3/6---6-6---6\1---1-1/3---3-|
|--------------------------------------------------------|
Comments