System Of A Down - Roulette Chords & Tabs

 

Roulette Chords & Tabs

System Of A Down Chords & Tabs

Version: 2 Type: Tab 0 ratings
1 star 2 stars 3 stars 4 stars 5 stars
comments

Roulette Tab

System of a down
Roulette
Steal this album
[ Tab from: http://www.guitartabs.cc/tabs/s/system_of_a_down/roulette_tab_ver_2.html ]
intro
e------------------------------------------------------------------------------------------------
h---------------4-------4-----------------8---------------------------------------------------------
g-------------------------------------------------------7-----------10-------10-----------5-------7-----
d------------------------------------------------------------------------------------------------
a---------3------3-3------3------6----------x----------------------------------------------------------
e-------------------------------------------------6---------6---9------9-9-------9---4------4-6------------
this riff is playing through the verses. 
When, serj begins to sing “I don`t know how I feel when I’m around you” It sounds like this:
e-------------------------------------------------------------------------------------------------------------
h---------4-----------4--------------------------------------------------------------------------
g---------------------------------4------------4----------------7--------7--------5---------7-----
d--------------------------------------------------------------------------------------------------------------
a------3-----3--3-------3---------------------------------------------------------------------------------
e----------------------------3--------3--3----------3----6-------6-6----6----4-----4--6---------

Solo:   
e------8-----8--10-11-----10--11---13-----10--11-13-11-10/8---10 -11----8--8--------------
h--------------------------------------------------------------------------------------------8--8----------
g--------------------------------------------------------------------------------------------------------
d--------------------------------------------------------------------------------------------------------
a---------------------------------------------------------------------------------------------------------
e---------------------------------------------------------------------------------------------------------

e-----------------------------------------------------------------------------------------------------------
h-------8--9--11--9---8---------8/9/8-------------------9/11/9---9/8---8/6----6------------------
g-----------------------------10-----------10-10---------8/10/8---8/7---7/5----5----------------------
d----------------------------------------------------8-8------------------------------------------------------
a-----------------------------------------------------------------------------------------------------------
e----------------------------------------------------------------------------------------------------------
and then repeat!

Through the solo, a second guitar is playing the intro

Comments