System Of A Down - Roulette Standard Tuning Chords & Tabs

 

Roulette Standard Tuning Chords & Tabs

System Of A Down Chords & Tabs

Version: 1 Type: Tab 5 ratings
1 star 2 stars 3 stars 4 stars 5 stars
comments

Roulette Standard Tuning Tab

Here it is in E tuning insted of pesky drop c


[ Tab from: http://www.guitartabs.cc/tabs/s/system_of_a_down/roulette_standard_tuning_tab.html ]
E/-----------------------------------------------------------------------------------------------------------------------
B/------4----------4---------------8--------------3----------------6--------------6------------------------------------	
G/------------------------------------------------------------------------------------------------- 5-------------7-----
D/-----------------------------------------------------------------------------------------------------------------------
A/--3------3--3--------3----6-----------6--1------------1---4----------- 4--4---------4------------------------------
e/---------------------------------------------------------------------------------------------4--------4 (s) 6----------6


E/-------------------------------------------------------------------------------------------------
B/----- 4--------- 4-------- 3------------3--------3------------3---------------------------------
G/------------------------------------------------------------------------5--------------7--------		
D/-------------------------------------------------------------------------------------------------
A/--3------3--3-------2---------2--2--------1---------1--1-------------------------------------                
e/--------------------------------------------------------------------4---------4 (s) 6--------6---
Comments