System Of A Down - Roulette Chords & Tabs

 

Roulette Chords & Tabs

System Of A Down Chords & Tabs

Version: 2 Type: Bass Tab 0 ratings
1 star 2 stars 3 stars 4 stars 5 stars
comments

Roulette Bass Tab

Artist - System of a Down
Song - Roulette
Album - Steal This Album

(EADG Tuning)-Standard

Intro:
G/----6------6---------10------5--------8-----8-------3---------5------------|
D/---------------------------------------------------------------------------|
A/--5----5-5----5-5/8-----0-3-----3-3/6---6-6----6\1-----1-1/3------3--------|(x4)
E/---------------------------------------------------------------------------|

Chorus
G/----6------6-------2-------2------5------5--------3--------5------------------|
D/------------------------------------------------------------------------------|
A/-5----5-5------5-0----0-0-----0-3----3-3----3--1-----1-1/3---3----------------|
E/------------------------------------------------------------------------------|(2x)

G/---6-----6---------10------5--------8------8-------3---------5---------------|
D/-----------------------------------------------------------------------------|
A/-5---5-5----5-5/8------0-3----3-3/6----6-6----6\1-----1-1/3------3-----------|(4 times)
E/-----------------------------------------------------------------------------|

Chorus-
G/---6-----6------2-----2------5-----5------3---------5------------------------|
D/-----------------------------------------------------------------------------|
A/-5---5-5---5-0----0-0----0-3---3-3----3-1----1-1/3-----3---------------------|(4 times)
E/-----------------------------------------------------------------------------|
[ Tab from: http://www.guitartabs.cc/tabs/s/system_of_a_down/roulette_btab_ver_2.html ]
G/----6-----6--------10------5---------8------8------3---------5---------------|
D/-----------------------------------------------------------------------------|
A/--5---5-5----5-5/8-----0-3----3-3/6-----6-6----6\1----1-1/3-----3------------|(4 times)
E/-----------------------------------------------------------------------------|


G/-10---10-12-13---12-13--15---12-13-15-13--12--10--12--13-13--12-12-10---------|
D/-----------------------------------------------------------------------10-10--|
A/------------------------------------------------------------------------------|
E/------------------------------------------------------------------------------|

G/-------------------------------------------------6-6\5-5\3-3\1-1--------------|
D/-10-11-13-11--10--8--10--11-11-10-10-8-----------8-8\6-6\5-5\3-3--------------|
A/-----------------------------------------10--10-------------------------------|
E/------------------------------------------------------------------------------|

Chorus
G/----6-----6-----2------2-----5------5-----3---------5-------------------------|
D/------------------------------------------------------------------------------|(4 times)
A/--5---5-5---5-0----0-0---0-3----3-3---3-1---1-1/3------3----------------------|
E/------------------------------------------------------------------------------|

Outro
G/---6-----6-------10------5---------8-------8------3----------5----------------             --1--|
D/------------------------------------------------------------------------------             --3--|
A/-5---5-5---5-5/8-----0-3----3-3/6-----6-6----6\1-----1-1/3-----3--------------(4 times)    --2--|
E/------------------------------------------------------------------------------             --0--|
Comments