System Of A Down - Roulette Chords & Tabs

 

Roulette Chords & Tabs

System Of A Down Chords & Tabs

Version: 1 Type: Bass Tab 0 ratings
1 star 2 stars 3 stars 4 stars 5 stars
comments

Roulette Bass Tab

   
                                "Roulette" by System of a Down
                                     tabbed by Drabaz30

tuning - Drop C (C,G,C,F)

(There's another way to play this song (the real way) that doesn't require so
much movement along the fretboard written under this version. I just like playin'
it this way because it doesn't require switching strings.)
================================================================================
My version

   for the verses...
F|---------------------------------| \  /  |  |
C|---------------------------------|  \/   |__|
G|5~~5~5~7/8~803~356~~6~6~01~1-3~3-|  /\      |
C|---------------------------------| /  \     |
   
   for the chorus...
F|--------------------------------| \  /   |  |
C|--------------------------------|  \/    |__|
G|5~~5~~5-0~~0~~0-3~~3~~301~1-3~3-|  /\       |
C|--------------------------------| /  \      |
================================================================================  
The Real Deal...(funny I should mention "dealing")

[ Tab from: http://www.guitartabs.cc/tabs/s/system_of_a_down/roulette_btab.html ]
F|--------------------------------| \  /  |  |
C|0--0-0-/3-3-----1--1-1----------|  \/   |__|
G|------------3-3---------1-1-3-3-|  /\      |
C|--------------------------------| /  \     |
                                            _
F|--------------------------------| \  /   / \
C|0--0--0-------------------------|  \/      /
G|--------0--0--0-3--3--3-1-1-3-3-|  /\     /
C|--------------------------------| /  \   /__

F|--------------------------------| \  /  |  |
C|0--0-0-/3-3-----1--1-1----------|  \/   |__|
G|------------3-3---------1-1-3-3-|  /\      |
C|--------------------------------| /  \     |
                                           
F|--------------------------------| \  /  |  |
C|0--0--0-------------------------|  \/   |__|
G|--------0--0--0-3--3--3-1-1-3-3-|  /\      |
C|--------------------------------| /  \     |

F|--------------------------------| \  /  |  |
C|0--0-0-/3-3-----1--1-1----------|  \/   |__|
G|------------3-3---------1-1-3-3-|  /\      |
C|--------------------------------| /  \     |

F|--------------------------------| \  /  |  |
C|0--0--0-------------------------|  \/   |__|
G|--------0--0--0-3--3--3-1-1-3-3-|  /\      |
C|--------------------------------| /  \     |

F|--------------------------------| \  /  |  |
C|0--0-0-/3-3-----1--1-1----------|  \/   |__|
G|------------3-3---------1-1-3-3-|  /\      |
C|--------------------------------| /  \     |

F|---|
C|--0|
G|-0-|
C|0--|
=========================================================================
Comments