System Of A Down - Revenga Chords & Tabs

 

Revenga Chords & Tabs

System Of A Down Chords & Tabs

Version: 5 Type: Tab 0 ratings
1 star 2 stars 3 stars 4 stars 5 stars
comments

Revenga Tab

Revenga
System of a Down
Tabber: Brian Gelvin
E-mail: deep_hard_metal_thrasher@yahoo.com

Some people get the intro very close and dito with the solo.
So here is what I think it is.

Key:
\=slide down
(pm)=palm mute


[INTRO clean]
Gutiar 1
Eb|--------5-------6-------6--5--5--------------|
Bb|6-------5-------6-------6--6--5--------------|
F#|7-------6-------7-------7--7--6--------------|
C#|7--------------------------------------------|
G#|5--------------------------------------------|
C#|--------------------------------------14\4---|


[VERSE 1 dirty]
|------------------------------------------------------------------------------|
|------------------------------------------------------------------------------|
|------------------------------------------------------------------------------|
|0--000---000---000---000-0--8-8-8-------0--000---000---000-0--885-885-885-885-|
|0--000---000---000---000-0--8-8-8-------0--000---000---000-0--885-885-885-885-|
|0--000---000---000---000-0--8-8-8-------0--000---000---000-0--885-885-885-885-|
(pm........................)            (pm...................................)


[VERSE 2a dirty]
|----------------------------------------------------------------------------------|
|----------------------------------------------------------------------------------|
|----------------------------------------------------------------------------------|
|-------------------------------------11-------------------------11--12--11--8--7--|
|-------------------------------------11-------------------------11--12--11--8--7--|
|00000---00000---00000---00000---0000-11----00000---00000---0000-11--12--11--8--7--|
(pm..................................)     (pm..................)
[ Tab from: http://www.guitartabs.cc/tabs/s/system_of_a_down/revenga_tab_ver_5.html ]
[VERSE 2b dirty]
|--------------------------------------------------------------------------------|
|--------------------------------------------------------------------------------|
|--------------------------------------------------------------------------------|
|----------------------------------------------------------------11--12--14--15--|
|----------------------------------------------------------------11--12--14--15--|
|00000---00000---00000---00000---0000-11----00000---00000---0000-11--12--14--15--|
(pm..................................)     (pm..................)


[CHORUS dirty]
|--------------------------------------------------------------|
|--------------------------------------------------------------|
|--------------------------------------------------------------|
|0--0-0-0-0-0-0-0-0--0-0-0-0-0-0-7--7-7-7-7-7-7-7--7-7-7-7-7-7-|
|0--0-0-0-0-0-0-0-0--0-0-0-0-0-0-7--7-7-7-7-7-7-7--7-7-7-7-7-7-|
|0--0-0-0-0-0-0-0-0--0-0-0-0-0-0-7--7-7-7-7-7-7-7--7-7-7-7-7-7-|
   (pm...........)  (pm.........)  (pm.........)  (pm.........)


|---------------------------------------------------------|
|---------------------------------------------------------|
|---------------------------------------------------------|
|8--8-8-8-8-8-8-8--8-8-8-7--6--6-6-6-6-6-6-3--3-3-3-3-3-3-|
|8--8-8-8-8-8-8-8--8-8-8-7--6--6-6-6-6-6-6-3--3-3-3-3-3-3-|
|8--8-8-8-8-8-8-8--8-8-8-7--6--6-6-6-6-6-6-3--3-3-3-3-3-3-|
   (pm.........)  (pm.)       (pm.........)  (pm.........)


[SOLO dirty]
|------------------------------------------------------------------------------------------------|
|------------------------------------------------------------------------------------------------|
|---7-7---------------------10-10------------------------8-8---------------------7-7-------------|
|-------7-------------------------10-------------------------8-----------------------7-----------|
|5--------8--5-4-5-7-----8-----------11--8-7-8-10-----6--------9--6-5-6-8-----5--------8--5-4-5--|
|------------------------------------------------------------------------------------------------|
Daron proboblys really hits that uper note 2x
Or he probobly uses a delay.


Song Structure:
[Intro]

[Verse 1] 2x

[Verse 2a]

[Verse 2b]

[Chorus] 2x

[Verse 2a]

[Verse 2b]

[Chorus] 2x

[Verse 1] 4x

[Intro] w/out the 14\4 2x

[Solo] 2x

[Chorus] 2x

[Verse 2a]

[Verse 1] 2x

Enjoy.
Comments