System Of A Down - Revenga Chords & Tabs

 

Revenga Chords & Tabs

System Of A Down Chords & Tabs

Version: 4 Type: Tab 0 ratings
1 star 2 stars 3 stars 4 stars 5 stars
comments

Revenga Tab

   
Revenga
from System of a Down: Mezmerize

tabbed by Mr. Dillon

tune down 1/2 step then tune low Eb to Db
Db Ab Db Gb Bb eb

/ or \ = slide
pm = palm mute

intro
---------------------------------------------------------------------|
--6---------10---------11---------11----10----9----------------------|
--7----------9---------10---------10----10----9----------------------|
--0----------7----------8----------8-----8----6----------------------|
-----------------------------------------------------------------8\--|
-----------------------------------------------------------------8\--|

riff 1 (play twice)
---------------------------------------------------------------------|
---------------------------------------------------------------------|
---------------------------------------------------------------------|
--------------------------8--8--8------------------------------------|
------------------------0-8--8--8\----------------0-875-875-875-875--|
--0-000-000-000-000-000-0-8--8--8\--0-000-000-000-0-875-875-875-875--|
  pm.....................           pm.............................

verse
---------------------------------------------------------------------|
---------------------------------------------------------------------|
---------------------------------------------------------------------|
-------------------------------11-------------------11--12---11-8-7--|
-------------------------------11-------------------11--12---11-8-7--|
--00000-00000-00000-00000-0000-11--00000-00000-0000-11--12---11-8-7--|
  pm..........................     pm..............

---------------------------------------------------------------------|
---------------------------------------------------------------------|
---------------------------------------------------------------------|
-------------------------------11-------------------11--12---14--15--|
-------------------------------11-------------------11--12---14--15--|
--00000-00000-00000-00000-0000-11--00000-00000-0000-11--12---14--15--|
  pm..........................     pm..............
[ Tab from: http://www.guitartabs.cc/tabs/s/system_of_a_down/revenga_tab_ver_4.html ]
chorus (play twice)
---------------------------------------------------------------------|
---------------------------------------------------------------------|
--2---------------2---------------9---------------9------------------|
--0---------------0---------------7---------------7------------------|
--0---0-0-0-0-0-0-0---0-0-0-0-0-0-7---7-7-7-7-7-7-7---7-7-7-7-7-7----|
--0---0-0-0-0-0-0-0---0-0-0-0-0-0-7---7-7-7-7-7-7-7---7-7-7-7-7-7----|
      pm.........     pm.........     pm.........     pm.........

----------------------------------------------------------------------|
----------------------------------------------------------------------|
-10---------------10-------10--9--8---------------5-------------------|
--8----------------8--------8--7--6---------------3-------------------|
--8---8-8-8-8-8-8--8---8-8--8--7--6---6-6-6-6-6-6-3---3-3-3-3-3-3-----|
--8---8-8-8-8-8-8--8---8-8--8--7--6---6-6-6-6-6-6-3---3-3-3-3-3-3(8\--|
      pm.........      pm.            pm.........     pm......... ^
                                                              2nd time
play verse
play chorus x2
play riff 1 x2

interlude (play twice)
----------------------------------------------------------------------|
--6---------10---------11---------11----10----9-----------------------|
--7----------9---------10---------10----10----9-----------------------|
--0----------7----------8----------8-----8----6--------------2--------|nd time
------------------------------------------------------------------^---|
-----------------------------------------------------------------(8\--|

riff 2 (play twice)
gtr 1
---------------------------------------------------------------------|
---------------------------------------------------------------------|
----7---------------10------------------8---------------7------------|
------7----------------10-----------------8---------------7----------|
--5-----8-5-4-5-7-8-------11-8-7-8-10-6-----9-6-5-6-8-5----8-5-4-5-7-|
---------------------------------------------------------------------|
gtr 2
---------------------------------------------------------------------|
---------------------------------------------------------------------|
---------------------------------------------------------------------|
--0-----------2---3----------3---5----1-----------4---0--------------|
--0-----------2---3----------3---5----1-----------4---0--------------|
--0-----------2---3----------3---5----1-----------4---0--------------|

play chorus x2

---------------------------------------------------------------------|
---------------------------------------------------------------------|
---------------------------------------------------------------------|
-------------------------------11-------------------11--12---11-8-7--|
-------------------------------11-------------------11--12---11-8-7--|
--00000-00000-00000-00000-0000-11--00000-00000-0000-11--12---11-8-7--|
  pm..........................     pm..............

play riff 1 x2
Comments