System Of A Down - Raven Chords & Tabs

 

Raven Chords & Tabs

System Of A Down Chords & Tabs

Version: 1 Type: Tab 0 ratings
1 star 2 stars 3 stars 4 stars 5 stars
comments

Raven Tab

Raven.
Main riff after an intro
e--------------------------------------------------------------------|
b--------------------------------------------------------------------|
g--------------------------------------------------------------------|
d--------------------------------------------------------------------|
a-2-2-2-2-2-2-2-2-2-2-2-2-2-2-2-2-2-2---------5/7-5------------------|
E-0-0-0-0-0-0-0-0-0-0-0-0-0-0-0-0-0-0---------3/5-3------------------|
Pm-------------------------------------------------------------------|
[ Tab from: http://www.guitartabs.cc/tabs/s/system_of_a_down/raven_tab.html ]
Raven flies as black as night it stalks its prey till death.
Its blackened eyes will fall upon a creature to be fed.
His feathers spiked his claws agrasp he soars above his prey
Waiting for a time to strike a swansong for the dead.

Chorus
e-------------------------------------------------------------------|
b-------------------------------------------------------------------|
g-------------------------------------------------------------------|
d-2----------9/7-----------------2--------9/7-----------------------|
a-0-----5----7/5---------5---7---0---5----7/5---8-8-8-8-8-8-8-------|
E-------3----------0-0-03-0-5-------3----------6-6-6-6-6-6-6-------|
Comments