System Of A Down - Rare Outro From Prison Song Live Chords & Tabs

 

Rare Outro From Prison Song Live Chords & Tabs

System Of A Down Chords & Tabs

Version: 1 Type: Tab 0 ratings
1 star 2 stars 3 stars 4 stars 5 stars
comments

Rare Outro From Prison Song Live Tab

Title: Prison Song outro
Artist: System of a Down
Album: Live
Date: 14/5/2002

Tabbed by Jon: JONROCKS1@HOTMAIL.COM

I tabbed this from a live video of Prison Song I got. 
Its from a gig in Holland and it comes at the end of 
the Prison Song. Daron sings and plays this all by 
himself so you don't have to know the song, its just 
a cool riff. If you recognise this from another song 
please e-mail and tell me.

[ Tab from: http://www.guitartabs.cc/tabs/s/system_of_a_down/rare_outro_from_prison_song_live_tab.html ]
e  |--------------------------------|---------------------------------|
B  |-------------------5------------|-----6-----4-----3-----4---------|
G  |------------4------------4------|---------------------------------|
D  |--------------------------------|---------------------------------|
A  |-----3--------------------------|---------------------------------|
E  |--------------------------------|---------------------------------|



e  |---------------------------------|------------------------------|-|
B  |---------------------------------|------------------------------|-|
G  |-------------------5-------------|-------------------7--------*-|-|
D  |------------6------------6-------|------------8------------8--*-|-|
A  |---------------------------------|------------------------------|-|
E  |-----4---------------------------|-----6------------------------|-|
Comments