System Of A Down - Radio/video Chords & Tabs

 

Radio/video Chords & Tabs

System Of A Down Chords & Tabs

Version: 6 Type: Tab 0 ratings
1 star 2 stars 3 stars 4 stars 5 stars
comments

Radio/video Tab

-------------------------------------------------------------------------------
			     radio/video - system of a down
-------------------------------------------------------------------------------

album: mesmerize (2005)
Tabbed by: Chris C.
Email:voodoochild1787@yahoo.com

Intro:

e|------------------------------------------------------------------------|
B|----10-----12-----------14----14----14--15p14------------14p------------|
G|-------xxx------------------------------------15--15--15-----13--13--13-|
D|-------xxx--------------------------------------------------------------|
A|-9-----xxx----10-10/12-----12----12-------------12--12---------12--12---|
E|------------------------------------------------------------------------|

e|----------------------------------------------------------------------------|
B|----10------12-----------14----14----14--15p14------------------------------|
G|-----------------------------------------------16--16--16-------------------|
D|----------------------------------------------------------------------------|
A|-99---99/10---10-10/12-----12----12--------------12--12----16-15-13-11-10-9-|
E|----------------------------------------------------------------------------|

e|------------------------------------------------------------------------|
B|----10-----12-----------14----14----14--15p14------------14p------------|
G|-------xxx------------------------------------15--15--15-----13--13--13-|
D|-------xxx--------------------------------------------------------------|
A|-9-----xxx----10-10/12-----12----12-------------12--12---------12--12---|
E|------------------------------------------------------------------------|

e|---------------------------------------------------------------------------|
B|----10------12-----------14----14----14--15p14-----------------------------|
G|-----------------------------------------------16--16--16------------------|
D|---------------------------------------------------------------------------|
A|-99---99/10---10-10/12-----12----12--------------12--12----16-15-13-11-10--|
E|---------------------------------------------------------------------------|

hey man look at me rocking now im on the radio
e|-----------------------------------------|
B|--------33333333--55555555555555---------|
G|--------33333333--55555555555555---------|
D|-44--4--33333333--55555555555555---------|
A|-44--4--11111111--33333333333333---------|
E|-22--6-----------------------------------|


hey man look at me rocking now im on the video
e|-----------------------------------------|
B|--------33333333-666666666666666---------|
G|--------33333333-666666666666666---------|
D|-44--4--33333333-666666666666666---------|
A|-44--4--11111111-444444444444444---------|
E|-22--6-----------------------------------|

[ Tab from: http://www.guitartabs.cc/tabs/s/system_of_a_down/radiovideo_tab_ver_6.html ]
with danny and lisa...
e|----------------------|
B|-4--------------------|
G|-4--5--4--3--2--------|
D|-4--5--4--3--2--------|
A|-6--5--4--3--2--------|
E|----------------------|


they take me away from....the strangest place of...
e|-------------------1-1-1-1-1-1-1-1--3-3-3-3-3-3-5-3--|
B|--3-3-3-3-3-3-3-3--2-2-2-2-2-2-2-2--4-3-4-3-4-3-4-3--|
G|--4-3-4-3-4-3-4-3--3-3-3-3-3-3-3-3--5-3-5-3-5-3-5-3--|
D|--5-3-5-3-5-3-5-3------------------------------------|
A|-----------------------------------------------------|
E|-----------------------------------------------------|


 (serj and daron harmonizing) "sweet danny and lisa"...
e|------------------------------------------------------|
B|---------------5/6--5----------------------5/7--5-----|
G|-44--2--4/5--3--------6--5---44--2--4/5--3--------7--5|
D|------------------------------------------------------|
A|------------------------------------------------------|
E|------------------------------------------------------|


hey man look at me rockin now im on the radio!!!!
e|---5-------7-------9--9--9-------------------------|
B|-----------------------------666666666666----------|
G|-----------------------------666666666666----------|
D|-4---44/55---5-5/7--7--7-----666666666666----------|
A|-----------------------------444444444444----------|
E|---------------------------------------------------|


hey man look at me rocking now im on the video!!!!
e|---5-------7-------9--9--9-------------------------|
B|-----------------------------666666666666----------|
G|-----------------------------666666666666--5-4-3-2-|
D|-4---44/55---5-5/7--7--7-----666666666666--5-4-3-2-|
A|-----------------------------444444444444--5-4-3-2-|
E|---------------------------------------------------|


they take me away from....
e|--333-3-------------------|
B|--444-3-------------------|
G|--555-3-------------------|
D|--------------------------|
A|--------------------------|
E|--------------------------|


solo:

e|--------------------------------------------------------------------------|
B|--------------------------------------------------------------------------|
G|-7--8--7-7--8--7-7--8--10-10--8-10-8---8-7--------------------------------|
D|------------------------------------10-----8-8-8--6--5b-5--6--8b-8--6--5b-|
A|--------------------------------------------------------------------------|
E|--------------------------------------------------------------------------|

e|--------------------------------------------------------------------------|
B|--------------------------------------------------------------------------|
G|-7--8--7-7--8--7-7--8--10-10--8-10-8---8-7--------------------------------|
D|------------------------------------10-----8-8-8--6--5b-5--6--8b-8--6--5b-|
A|--------------------------------------------------------------------------|
E|--------------------------------------------------------------------------|


dont feel like tabbing the rest but most of it is done in tremolo picking
Comments