System Of A Down - Radio/video Chords & Tabs

 

Radio/video Chords & Tabs

System Of A Down Chords & Tabs

Version: 4 Type: Tab 7 ratings
1 star 2 stars 3 stars 4 stars 5 stars
comments

Radio/video Tab

   
Artist: System of a Down
Song:   Radio/Video
Cd:     Mezmirize


Tuning: D Tunning (DADGBe)

This is 99% correct. the only part that is off a little is the last part of the solo. but it sounds good so who gives...



    Intro
e|--------------------------------------------------------------------------------|
B|----10--------12-------14----14-14-14-14-15p14/12---12---12--13p12s10--10--10---|
G|--------------------------------------------------------------------------------|
D|--------------------------------------------------------------------------------|
A|--9----9-9/11----11/12----12---12-------------------11---11-------------9---9-----|
D|--------------------------------------------------------------------------------|

e|--------------------------------------------------------------------------------|
B|-------10--------12-------14----14-14-14-14-15p14s13---13---13------------------|
G|--------------------------------------------------------------------------------|
D|-------------------------------------------------------------------------------12-12-11-9---------|
A|-9-9-9----9-9-11----11-12----12----------------------11---11------------------------------12-11---|
D|--------------------------------------------------------------------------------|

Part A
e|--------------------------------------------------------------------------------|
B|--------------------------------------------------------------------------------|
G|-------------------------------------------------------------------------------|
D|--4-4----6-6---6/7----7-7-7—8/7/6---------------------------------------|
A|--4-4----6-6---6/7----7-7-7—8/7/6--------------------------------------|
D|--4-4----6-6---6/7----7-7-7—8/7/6-------------------------------------|


e|--------------------------------------------------------------------------------|
B|--------------------------------------------------------------------------------|
G|---------------------------------------------------------------------------------
D|--4-4----6-6---6/7----7-7-7—12/11/10------------------------------------
A|--4-4----6-6---6/7----7-7-7—12/11/10------------------------------------
D||-4-4----6-6---6/7----7-7-7—12/11/10------------------------------------

Part B
e|--------------------------------------------------------------------------------|
B|--------------------------------------------------------------------------------|
G|---------------------------------------------------------------------------------
D|--12----11-----9----7-----6~~~-------------------------------------------------
A|--12----11-----9----7-----6~~~-------------------------------------------------
D||-12----11-----9----7-----6~~~-------------------------------------------------


Part C
E|--x--9----9----------9----9----9-------9----9----9--------9----9----9------------|
B|--x-10---10---------10---10---10------10---10---10-------10---10---10-----------|
G|--x-11---11---------11---11---11------11---11---11-------11---11---11-----------
D|--x-11---11---------11---11---11------11---11---11-------11---11---11-----------
A|-------------------------------------------------------------------------------------------
D||-------------------------------------------------------------------------------------------
[ Tab from: http://www.guitartabs.cc/tabs/s/system_of_a_down/radiovideo_tab_ver_4.html ]
E|--x---7----7-----------7----7----7--------7----7----7----------7----7----7------------|
B|--x---9----9-----------9----9----9--------9----9----9----------9----9----9------------|
G|--x---9----9-----------9----9----9--------9----9----9----------9----9----9------------|
D|--x---7----7-----------7----7----7--------7----7----7----------7----7----7------------|
A|-------------------------------------------------------------------------------------------
D||-------------------------------------------------------------------------------------------

Part D
E|-------------------------------------------------------------------------------------------------------------
B|---------------------------------------------------------------------------------------------------------------
G|---------------------------12/13---11-----------------------------------------12/13---11----------------
D|--------11--12--11----------------------12--11--9--------------12--11---------------------12--11-----
A|---9---------------------------------------------------11--12-------------------------------------------
D||---------------------------------------------------------------------------------------------------------------

    (solo) pt 1
e|--------------------------------------------------------------------------------------------------------------|
B|--------------------------------------------------------------------------------------------------------------|
G|----------------------------------9--9-9-9-----------------------------------------------------------|
D|--11-12-11--11-12-11--11-12-----------------12-11--12-11-9--9--9-9----------------------9b------
A|-------------------------------------------------------------------------12-11b-11-12--------12-11-11b|
E|-----------------------------------------------------------------------------------------------------------------|
 Pt2							Part 2.5
E--------------------------|-----------------------|--------------------------------------
B--------------------------|-----------------------|-----------------------------------
G--------------------------|-----------------------|--------------------------------------
D--------------------------|-----------------------|---------------------------------------
A---11-11-11-12p11p9-9-----|-------14p12p11-11-----|--------------11-12-11-12-11-12-11-12
D--------------------------4x----------------------4x--------------------------------------------


Solo pt3
E ---9------|----9------|---9-----|------7-----|----7------|-----7------|-----5-----|-----5----|-----5----|----4----------
B --10------|----12-—---|---10----|------9-----|----10-----|-----9------|-----7-----|-----9----|-----7----|----6----------
G---11------|----x------|---x-----|------9-----|----9------|-----9------|-----7-----|-----7----|-----7----|----6----------
D --11------|----11-----|---11----|------9-----|----9------|-----9------|-----7-----|-----7----|-----7----|----6------------
A---9-------|----9------|---9-----|------7-----|----7------|-----9------|-----5-----|-----5----|-----5----|----4---------
D-------8x--|--------4x-|------4x-|-------8x---|-------4x-|---------4x-|--------8x-|-------4x-|------4x-|---------16x




Intro-2x
A-2x
B
C-2x
D-2x
A-2x
B
C-2x
D-2x
Mix of intro and A
B
C-2x
Solo 1-2x
Solo 2-2x
Solo 2.5
D-2x 
Solo 3-2x (with D playing an octive higher than normal)
A-2x
B
		
Comments