System Of A Down - Radio/video Chords & Tabs

 

Radio/video Chords & Tabs

System Of A Down Chords & Tabs

Version: 1 Type: Tab 2 ratings
1 star 2 stars 3 stars 4 stars 5 stars
comments

Radio/video Tab

   
Song Title: Radio/Video
Artist: System Of A Down
Tabbed By: Alias

Tuning: Standard (EADGBe)

    Intro
e|--------------------------------------------------------------------------------|
B|----10--------12-------14----14-14-14-14-15p14s12---12---12--13p12s10--10--10---|
G|--------------------------------------------------------------------------------|
D|--------------------------------------------------------------------------------|
A|--9----9-9-11----11-12----12---12-12-12-----------11---11-------------9---9-----|
E|--------------------------------------------------------------------------------|

e|--------------------------------------------------------------------------------|
B|-------10--------12-------14----14-14-14-14-15p14s12---12---12------------------|
G|--------------------------------------------------------------------------------|
D|----------------------------------------------------------------11-11-9---------|
A|-9-9-9----9-9-11----11-12----12----------------------11---11------------12-11---|
E|--------------------------------------------------------------------------------|
[ Tab from: http://www.guitartabs.cc/tabs/s/system_of_a_down/radiovideo_tab.html ]
    Part A			     Part B
e|--------------------------------------------------------------------------------|
B|--------------------------------------------------------------------------------|
G|-----------------------------------6-6--4---------------------------------------|
D|--4-4--6-6-6--7--7s6---------------6-6--4--7--6---------------------------------|
A|--4-4--6-6-6--7--7s6---------------4-4--2--7--6---------------------------------|
E|--2-2--4-4-4--5--5s4-----------------------5--4---------------------------------|

    Part C
    Downstrum first, up-strum the rest on the off-beat (not all strums shown)
e|--------------------------------------------------------------------------------|
B|--------------------------------------------------------------------------------|
G|--11-11----13-13----------------------------------------------------------------|
D|--11-11----13-13----------------------------------------------------------------|
A|--9--9-----11-11----------------------------------------------------------------|
E|--------------------------------------------------------------------------------|

    Part D (solo)
e|--------------------------------------------------------------------------------|
B|--------------------------------------------------------------------------------|
G|----------------------------9--9-9-9--------------------------------------------|
D|--11-12-11--11-12-11--11-12----------12-11--12-11-9--9--9-9--------------9b10b9-|
A|------------------------------------------------------------12-11b-11-12--------|
E|--------------------------------------------------------------------------------|

I don't put every single strum, so listen to the song to get the right sound/tempo

There is a bit more to the solo part on the bridge, mostly descending triplets on
the 'la-la-la's.  If you're playing it solo (like me) and not in a band, just play
part C for that.  Otherwise, figure it out yourself.
Comments