System Of A Down - Radio/video Chords & Tabs

 

Radio/video Chords & Tabs

System Of A Down Chords & Tabs

Version: 2 Type: Bass Tab 0 ratings
1 star 2 stars 3 stars 4 stars 5 stars
comments

Radio/video Bass Tab

System Of A Down
Radio/Video
Mesmerize
Bass Tab
_____________________

Intro No Bass

Chorus
|-----------------------|
|-----------------------|
|-----------------------|
|-2-2---4-4---5-----7-4-|

|---------------------------|
|---------------------------|
|---------------------------|
|-2-2---4-4---5-----10-10-9-|

|-----------------------|
|-----------------------|
|-----------------------|
|-2-2---4-4---5-----7-4-|

|---------------------------------------|
|---------------------------------------|
|---------------------------------------|
|-2-2---4-4---5-----10-10-9--10-9-7-5-4-|


Verse

|---------------------------------|
|---------------------------------|
|---------------------------------|     x4
|-2-2-2-2-2-2-2-2-0-0-0-0-0-0-0-0-|


Chorus
|-----------------------|
|-----------------------|
|-----------------------|
|-2-2---4-4---5-----7-4-|

|---------------------------|
|---------------------------|
|---------------------------|
|-2-2---4-4---5-----10-10-9-|

|-----------------------|
|-----------------------|
|-----------------------|
|-2-2---4-4---5-----7-4-|

|---------------------------------------|
|---------------------------------------|
|---------------------------------------| 
|-2-2---4-4---5-----10-10-9--10-9-7-5-4-|


Verse
[ Tab from: http://www.guitartabs.cc/tabs/s/system_of_a_down/radiovideo_btab_ver_2.html ]
|---------------------------------|
|---------------------------------|
|---------------------------------|     x4
|-2-2-2-2-2-2-2-2-0-0-0-0-0-0-0-0-|


Guitare Only

Verse

|---------------------------------|
|---------------------------------|
|---------------------------------|     x2
|-2-2-2-2-2-2-2-2-0-0-0-0-0-0-0-0-|

Guitare Only

Chorus
|-----------------------|
|-----------------------|
|-----------------------|
|-2-2---4-4---5-----7-4-|

|---------------------------|
|---------------------------|
|---------------------------|
|-2-2---4-4---5-----10-10-9-|

|-----------------------|
|-----------------------|
|-----------------------|
|-2-2---4-4---5-----7-4-|

|---------------------------------------|
|---------------------------------------|
|---------------------------------------| 
|-2-2---4-4---5-----10-10-9--10-9-7-5-4-|


Chorus
|-----------------------|
|-----------------------|
|-----------------------|
|-2-2---4-4---5-----7-4-|

|---------------------------|
|---------------------------|
|---------------------------|
|-2-2---4-4---5-----10-10-9-|

|-----------------------|
|-----------------------|
|-----------------------|
|-2-2---4-4---5-----7-4-|

|---------------------------------------|
|---------------------------------------|
|---------------------------------------| 
|-2-2---4-4---5-----10-10-9--10-9-7-5-4-|


______________________________________

Tab by Kornichon : Naheulbeuk_Dwarf@hotmail.com
Comments