System Of A Down - Question Chords & Tabs

 

Question Chords & Tabs

System Of A Down Chords & Tabs

Version: 3 Type: Tab 0 ratings
1 star 2 stars 3 stars 4 stars 5 stars
comments

Question Tab

   
System of a Down - Question!
============================

Tunings
-------
The Acoustic guitar: EADGBE
The other guitars: CGCFAD




Intro: (9/16) acoustic guitar
------

   [4X]
e:-0-----------------------|-0-----------------------|
b:---0----------0----------|---0----------0----------|
G:-----12----12---12----12-|-----12----12---12----12-|
D:--------10---------12----|--------10---------10----|
A:-------------------------|-------------------------|
E:-------------------------|-------------------------|

   [1x]
e:-0-----------------------|-0-----------0-----------|
b:---0----------0----------|---0---------0-----------|
G:-----12----12---12----12-|-----12------12----------|
D:--------10---------10----|--------10/--9-----------|
A:-------------------------|-------------10----------|
E:-------------------------|-------------12----------|


:::::::::::::::::::::::::::::::


Main Riff: 5/8 
----------

   [2x]
c:----------------------|----------------------|
a:----------------------|----------------------|
F:----------------------|----------------------|
C:----------------------|----------------------|
G:-4---11-9---7-7-9-6-7-|-4---11-9---7-7-9-6-7-|
C:-4---11-9---7-7-9-6-7-|-4---11-9---7-7-9-6-7-|

c:-----------------------|----------------------|
a:-----------------------|----------------------|
F:-----------------------|----------------------|
C:-----------------------|----------------------|
G:-4----11-9-9-7-7-6-9-7-|-4-4-11-9-9-7-7-6-9-7-|
C:-4-44-11-9-9-7-7-6-9-7-|-4-4-11-9-9-7-7-6-9-7-|



::::::::::::::::


Verse: 9/16  acoustic guitar
------

   [3x]
e:-0-----------------------|-0-----------------------|
b:---0----------0----------|---0----------0----------|
G:-----12----12---12----12-|-----12----12---12----12-|
D:--------10---------12----|--------10---------10----|
A:-------------------------|-------------------------|
E:-------------------------|-------------------------|

   [2x]  6/8
e:-------0-----------0-----|-------0-----------0-----|
b:-----0---0-------0---0---|-----0---0-------0---0---|
G:---5-------5---5-------5-|---5-------5---5-------5-|
D:-7-----------7-----------|-7-----------7-----------|
A:-------------------------|-------------------------|
E:-------------------------|-------------------------|


::::::::::::::::


Pre-Chorus:
-----------

    [1x]
e:-3-3-3-3-0-0-0-0-3-3-3-3-0-0-0-0-|
b:-0-0-0-0-0-0-0-0-0-0-0-0-0-0-0-0-|
G:-0-0-0-0-0-0-0-0-0-0-0-0-0-0-0-0-|
D:-2-2-2-2-2-2-2-2-2-2-2-2-2-2-2-2-|
A:---------------------------------|
E:---------------------------------|


:::::::::::::::

Chorus:
-------
[ Tab from: http://www.guitartabs.cc/tabs/s/system_of_a_down/question_tab_ver_3.html ]
c:-------------------------|-------------------------|
a:-------------------------|-------------------------|
F:-------------------------|-------------------------|
C:---------6p4---------6p4-|---------6p4---------6p4-|
G:-4---4-4-----4---4-4-----|-4---4-4-----4---4-4-----|
C:-4---4-4-----4---4-4-----|-4---4-4-----4---4-4-----|
p.m:   . .         . .           . .         . .

c:-------------------------|------------------------------|
a:-------------------------|------------------------------|
F:-------------------------|------------------------------|
C:---------6p4---------6p4-|---------11p9---12p9---11p9---|
G:-4---4-4-----4---4-4-----|-9---9-9------9------9------9-|
C:-4---4-4-----4---4-4-----|-9---9-9----------------------|
p.m:   . .         . .

c:-------------------------|-------------------------|
a:-------------------------|-------------------------|
F:-------------------------|-------------------------|
C:---------6p4---------6p4-|---------6p4---------6p4-|
G:-4---4-4-----4---4-4-----|-4---4-4-----4---4-4-----|
C:-4---4-4-----4---4-4-----|-4---4-4-----4---4-4-----|
p.m:   . .         . .           . .         . .

c:-------------------------|------------------------------|
a:-------------------------|------------------------------|
F:-------------------------|------------------------------|
C:---------6p4---------6p4-|---------11p9---12p9---11p9---|
G:-4---4-4-----4---4-4-----|-9---9-9------9------9------9-|
C:-4---4-4-----4---4-4-----|-9---9-9----------------------|
p.m:   . .         . .

c:-------------------------|
a:-------------------------|
F:-------------------------|
C:-------------------------|
G:-9---9-9-9---9---9-9-9---|
C:-9---9-9-9---9---9-9-9---|


::::::::::::::::


Breakdown: 4/4
--------------
  
c:---------------------------------|
a:---------------------------------|
F:---------------------------------|
C:---------------------------------|
G:---------------------------------|
C:-4-44440-4-44440-4-44440-4-44440-|
p.m. ..... . ..... . ..... . .....

   [3x]
c:---------------------------------|
a:---------------------------------|
F:---------------------------------|
C:---------------------------------|
G:---------------------------------|
C:-4-44440-4-44440-4-44440-4-44440-|
p.m. ..... . ..... . ..... . .....

   [1x]
c:----------------------------------|
a:----------------------------------|
F:----------------------------------|
C:----------------------------------|
G:----------------------------------|
C:-99999999999999999999999999999999-|
p.m................................


   [3x]
c:---------------------------------|
a:---------------------------------|
F:---------------------------------|
C:---------------------------------|
G:---------------------------------|
C:-4-44440-4-44440-4-44440-4-44440-|
p.m. ..... . ..... . ..... . .....

   [2x]
c:----------------------------------|
a:----------------------------------|
F:----------------------------------|
C:----------------------------------|
G:----------------------------------|
C:-99999999999999999999999999999999-|
p.m................................


::::::::::::::::::::::



Order:
- Intro
- Main Riff
- Verse
- Pre-Chorus
- Chorus
- Main Riff
- Verse
- Pre-Chorus
- Chorus
- Main Riff
- Breakdown
- Main Riff
- Outro (same as Intro)
- Main Riff
Comments