System Of A Down - Question Chords & Tabs

 

Question Chords & Tabs

System Of A Down Chords & Tabs

Version: 2 Type: Tab 0 ratings
1 star 2 stars 3 stars 4 stars 5 stars
comments

Question Tab

   
Band: system of a down
Album: mezmerize
Song: Question
By: the lord of guitar
tuning: (LOW TO HIGH CGCFAD)

the old intro was wrong so here it is its sounds right
Intro/verse:  X8

remember this chord
for the intro part

C |-1-||
G |-3-||
C |-2-||
F |-3-||
A |---||
D |---||


           Intro/verse:  X8


C |--1-----1--- -1------1--------------|------0--------------------------||
G |-3-3---3-3-- 3-3----3-3-------------|------1--------------------------||
C |-----2-----------2------------------|------2--------------------------||
F |----------3------------3------------|-3-3--3--------------------------||
A |------------------------------------|-3-------------------------------||
D |------------------------------------|---------------------------------||

Main Riff:  X4
 
 |---------------------------||
 |---------------------------||
 |-----6/-4--4-4-4-----------||
 |--4--6/-4--4-4-4-----------||
 |--4--4/-2--2-2-2-----------||
 |--4------------------------|| 

 |----------------------------||
 |----------------------------||
 |-----6/-4-------------------||
 |--4--6/-4-7-9--6-7----------||
 |--4--4/-2-7-9--6-7----------||
 |--4-------7-9--6-7----------||


After the main riff All palm muted:  X4

 |----------------------------|----------||
 |----------------------------|----------||
 |-------6-6--4-4-------------|----------||
 |---4-4-6-6--4-4--7-9--6-7---|---4------||
 |---4-4-4-4--2-2--7-9--6-7---|---4------||
 |---4-4-----------7-9--6-7---|---4------||


Verse:  X13

Guitar 1:
 
C |--1-----1--- -1------1--------------|
G |-3-3---3-3-- 3-3----3-3-------------|
C |-----2-----------2------------------|
F |----------3------------3------------|
A |------------------------------------|
D |------------------------------------|
Pre chorus:  X2
 |------------------------------------------------||
 |--7--7-7-7-7-7--3---3-3-3-3-3-------------------||
 |--6--6-6-6-6-6--2---2-2-2-2-2-------------------||
 |--4--4-4-4-4-4--0---0-0-0-0-0-------------------||
 |--4-------------0-------------------------------||
 |--4-------------0-------------------------------||

Chorus: X2 DO WE DO WE KNOW............
 |----------------------------------------------------------------||
 |----------------------------------------------------------------||
 |----------------------------------------------------------------||
 |--4-44-6p4-4-44-6p4-4-44-6p4-4-44-6p4-4-44-6p4-4-44-6p4---------||
 |--4-44-----4-44-----4-44-----4-44-----4-44-----4-44-------------||
 |--4-44-----4-44-----4-44-----4-44-----4-44-----4-44-------------||
 


 |--------------------------------||
 |--------------------------------||
 |--------------------------------||
 |--9-9--9h11-11-12p11-11-11p9----||
 |--9-9---------------------------||
 |--9-9---------------------------||
  

Post chorus:

 |----------------||
 |----------------||
 |----------------||
 |--9-9~----------||
 |--9-9~----------||
 |--9-9~----------||

 |----------------------------||
 |----------------------------||
 |-----6/-4-------------------||
 |--4--6/-4-7-9--6-7----------||    X2
 |--4--4/-2-7-9--6-7----------||
 |--4-------7-9--6-7----------||

Verse: 
Guitar 1:
C |--1-----1--- -1------1--------------|
G |-3-3---3-3-- 3-3----3-3-------------|
C |-----2-----------2------------------|
F |----------3------------3------------|
A |------------------------------------|
D |------------------------------------|
[ Tab from: http://www.guitartabs.cc/tabs/s/system_of_a_down/question_tab_ver_2.html ]
 Pre chorus:  X2
 |------------------------------------------------||
 |--7--7-7-7-7-7--3---3-3-3-3-3-------------------||
 |--6--6-6-6-6-6--2---2-2-2-2-2-------------------||
 |--4--4-4-4-4-4--0---0-0-0-0-0-------------------||
 |--4-------------0-------------------------------||
 |--4-------------0-------------------------------||

Chorus: X2          OTHER TABS SAY 5P3 GO WITH EITHER ONE that sounds good
 |----------------------------------------------------------------||
 |----------------------------------------------------------------||
 |----------------------------------------------------------------||
 |--4-44-6p4-4-44-6p4-4-44-6p4-4-44-6p4-4-44-6p4-4-44-6p4---------||
 |--4-44-----4-44-----4-44-----4-44-----4-44-----4-44-------------||
 |--4-44-----4-44-----4-44-----4-44-----4-44-----4-44-------------||
PM     ..       ..       ..       .. 

 |--------------------------------||
 |--------------------------------||
 |--------------------------------||
 |--9-9--9h11-11-12p11-11-11p9----||
 |--9-9---------------------------||
 |--9-9---------------------------||



Post Chorus:

 |--------------||
 |--------------||
 |--11--6-------||
 |--9---4-------||
 |--9---4-------||
 |--9---4-------||

 |----------------------------||
 |----------------------------||
 |-----6/-4-------------------||
 |--4--6/-4-7-9--6-7----------||   X4
 |--4--4/-2-7-9--6-7----------||
 |--4-------7-9--6-7----------||

   ? PALM MUTED
 |----------------------------||
 |----------------------------||
 |-------6-6--4-4-------------||
 |---4-4-6-6--4-4--7-9--6-7---||   X4
 |---4-4-4-4--2-2--7-9--6-7---||
 |---4-4-----------7-9--6-7---||

  ? PALM MUTED
 |----------------------------||
 |----------------------------||
 |----------------------------||
 |----------------------------||    X4
 |-----444-222----------------||
 |--444--------77-99-66-77----||


     DA DA DA....
      
 |----------------------------||
 |----------------------------||
 |-----6/-4-------------------||
 |--4--6/-4-7-9--6-7----------||   X6
 |--4--4/-2-7-9--6-7----------||
 |--4-------7-9--6-7----------||
     super fast
 |----------------------------------------------------------------||
 |----------------------------------------------------------------||
 |----------------------------------------------------------------||
 |----------------------------------------------------------------||
 |----------------------------------------------------------------||
 |----4-4444-0-4-4444-0-4-4444-0-4-4444-0-------------------------||


Chorus:  X2

 |----------------||
 |----------------||
 |----------------||   X11
 |----------------||
 |----------------||
 |--4-4444-0------||


 |----------------||
 |----------------||
 |----------------||  X2
 |----------------||
 |-22222222222----||
 |----------------||

Post Chorus:

 |----------------------------||
 |----------------------------||
 |-----6/-4-------------------||
 |--4--6/-4-7-9--6-7----------||   X4
 |--4--4/-2-7-9--6-7----------||
 |--4-------7-9--6-7----------||


 |----------------||
 |----------------||
 |---6------------||
 |---4------------||
 |---4------------||
 |---4------------||

C |--1-----1--- -1------1--------------|
G |-3-3---3-3-- 3-3----3-3-------------|
C |-----2-----------2------------------| X4
F |----------3------------3------------|
A |------------------------------------|
D |------------------------------------|

C |------0--------------------------||
G |------1--------------------------||
C |------2--------------------------||
F |-3-3--3--------------------------||
A |-3-------------------------------||
D |---------------------------------||
 
     DA DA DA....
 |----------------------------||
 |----------------------------||
 |-----6/-4-------------------||
 |--4--6/-4-7-9--6-7----------||   X2
 |--4--4/-2-7-9--6-7----------||
 |--4-------7-9--6-7----------||
Comments