System Of A Down - Question Chords & Tabs

 

Question Chords & Tabs

System Of A Down Chords & Tabs

Version: 1 Type: Tab 0 ratings
1 star 2 stars 3 stars 4 stars 5 stars
comments

Question Tab

Intro/verse:  X8


D |---5---5---5---5---5---5---5---5----|---2------------------------||
A |----------------7----------------7--|---2------------------------||
F |--6--6-------6----6--6-------6------|---2------------------------||
C |---------4---------------4----------|---4------------------------||
G |------------------------------------|---4------------------------||
C |------------------------------------|----------------------------||


Main Riff:  X4


D |----------------------------||
A |----------------------------||
F |-----6/-4-------------------||
C |--4--6/-4-7-9--6-7----------||
G |--4--4/-2-7-9--6-7----------||
C |--4-------7-9--6-7----------||


After the main riff All palm muted:  X4

D |----------------------------|----------||
A |----------------------------|----------||
F |-------6-6--4-4-------------|----------||
C |---4-4-6-6--4-4--7-9--6-7---|---4------||
G |---4-4-4-4--2-2--7-9--6-7---|---4------||
C |---4-4-----------7-9--6-7---|---4------||


Verse:  X13

Guitar 1:
D |---5---5---5---5---5---5---5---5----||
A |----------------7----------------7--||
F |--6--6-------6----6--6-------6------||
C |---------4---------------4----------||
G |------------------------------------||
C |------------------------------------|| 

Guitar 2/Bass:

D |------------------------------------------------||
A |------------------------------------------------||
F |------------------------------------------------||
C |-----2-4---2--------2-4---2---------------------||
G |---2-----5---4-5--2-----5---4-5-----------------||
C |------------------------------------------------||


D |---------------------------------||
A |---------------------------------||
F |---------------------------------||
C |---2-4---2-----------2-4-----2-4-||
G |-2-----5---4-5---2-5-----2-5-----||
C |---------------------------------||

D |------------------------------------------------||
A |------------------------------------------------||
F |------------------------------------------------||
C |-----2-4---2--------2-4---2---------------------||
G |---2-----5---4-5--2-----5---4-5-----------------||
C |------------------------------------------------||

D |----------------------------------------------------||
A |----------------------------------------------------||
F |----------------------------------------------------||
C |---2-4---2-----------2-4-----2-4-----2-4-----2-4----||
G |-2-----5---4-5---2-5-----2-5-----2-5-----2-5--------||
C |----------------------------------------------------|| 
 

Pre chorus:  X2
D |------------------------------------------------||
A |--7--7-7-7-7-7--3---3-3-3-3-3-------------------||
F |--6--6-6-6-6-6--2---2-2-2-2-2-------------------||
C |--4--4-4-4-4-4--0---0-0-0-0-0-------------------||
G |--4-------------0-------------------------------||
C |--4-------------0-------------------------------||

Chorus: X2
D |----------------------------------------------------------------||
A |----------------------------------------------------------------||
F |----------------------------------------------------------------||
C |--4-44-6p4-4-44-6p4-4-44-6p4-4-44-6p4-4-44-6p4-4-44-6p4---------||
G |--4-44-----4-44-----4-44-----4-44-----4-44-----4-44-------------||
C |--4-44-----4-44-----4-44-----4-44-----4-44-----4-44-------------||
PM     ..       ..       ..       .. 



D |--------------------------------||
A |--------------------------------||
F |--------------------------------||
C |--9-9--9h11-11-12p11-11-11p9----||
G |--9-9---------------------------||
C |--9-9---------------------------||
PM     .       .        .  

Post chorus:

D |----------------||
A |----------------||
F |----------------||
C |--9-9~----------||
G |--9-9~----------||
C |--9-9~----------||

D |----------------------------||
A |----------------------------||
F |-----6/-4-------------------||
C |--4--6/-4-7-9--6-7----------||    X2
G |--4--4/-2-7-9--6-7----------||
C |--4-------7-9--6-7----------||

Verse: 
Guitar 1:
D |---5---5---5---5---5---5---5---5----||
A |----------------7----------------7--||
F |--6--6-------6----6--6-------6------||
C |---------4---------------4----------||
G |------------------------------------||
C |------------------------------------|| 

Guitar 2/Bass:

D |------------------------------------------------||
A |------------------------------------------------||
F |------------------------------------------------||
C |-----2-4---2--------2-4---2---------------------||
G |---2-----5---4-5--2-----5---4-5-----------------||
C |------------------------------------------------||
[ Tab from: http://www.guitartabs.cc/tabs/s/system_of_a_down/question_tab.html ]
D |---------------------------------||
A |---------------------------------||
F |---------------------------------||
C |---2-4---2-----------2-4-----2-4-||
G |-2-----5---4-5---2-5-----2-5-----||
C |---------------------------------||

D |------------------------------------------------||
A |------------------------------------------------||
F |------------------------------------------------||
C |-----2-4---2--------2-4---2---------------------||
G |---2-----5---4-5--2-----5---4-5-----------------||
C |------------------------------------------------||

D |----------------------------------------------------||
A |----------------------------------------------------||
F |----------------------------------------------------||
C |---2-4---2-----------2-4-----2-4-----2-4-----2-4----||
G |-2-----5---4-5---2-5-----2-5-----2-5-----2-5--------||
C |----------------------------------------------------|| 
 

Pre chorus:  X2
D |------------------------------------------------||
A |--7--7-7-7-7-7--3---3-3-3-3-3-------------------||
F |--6--6-6-6-6-6--2---2-2-2-2-2-------------------||
C |--4--4-4-4-4-4--0---0-0-0-0-0-------------------||
G |--4-------------0-------------------------------||
C |--4-------------0-------------------------------||

Chorus: X2
D |----------------------------------------------------------------||
A |----------------------------------------------------------------||
F |----------------------------------------------------------------||
C |--4-44-6p4-4-44-6p4-4-44-6p4-4-44-6p4-4-44-6p4-4-44-6p4---------||
G |--4-44-----4-44-----4-44-----4-44-----4-44-----4-44-------------||
C |--4-44-----4-44-----4-44-----4-44-----4-44-----4-44-------------||
PM     ..       ..       ..       .. 

D |--------------------------------||
A |--------------------------------||
F |--------------------------------||
C |--9-9--9h11-11-12p11-11-11p9----||
G |--9-9---------------------------||
C |--9-9---------------------------||
PM     .       .        .  


Post Chorus:

D |---------------||
A |---------------||
F |--11--6~-------||
C |--9---4~-------||
G |--9---4~-------||
C |--9---4~-------||

D |----------------------------||
A |----------------------------||
F |-----6/-4-------------------||
C |--4--6/-4-7-9--6-7----------||   X4
G |--4--4/-2-7-9--6-7----------||
C |--4-------7-9--6-7----------||

All Palm Muted
D |----------------------------||
A |----------------------------||
F |-------6-6--4-4-------------||
C |---4-4-6-6--4-4--7-9--6-7---||   X4
G |---4-4-4-4--2-2--7-9--6-7---||
C |---4-4-----------7-9--6-7---||

All Palm Muted
D |----------------------------||
A |----------------------------||
F |----------------------------||
C |----------------------------||    X4
G |-----444-222----------------||
C |--444--------77-99-66-77----||



Da da da...
D |----------------------------||
A |----------------------------||
F |-----6/-4-------------------||
C |--4--6/-4-7-9--6-7----------||   X6
G |--4--4/-2-7-9--6-7----------||
C |--4-------7-9--6-7----------||

D |----------------------------------------------------------------||
A |----------------------------------------------------------------||
F |----------------------------------------------------------------||
C |----------------------------------------------------------------||
G |----------------------------------------------------------------||
C |----4-4444-0-4-4444-0-4-4444-0-4-4444-0-------------------------||


Chorus:  X2

D |----------------||
A |----------------||
F |----------------||   X11
C |----------------||
G |----------------||
C |--4-4444-0------||


D |----------------||
A |----------------||
F |----------------||  X2
C |----------------||
G |-22222222222----||
C |----------------||

Post Chorus:

D |----------------------------||
A |----------------------------||
F |-----6/-4-------------------||
C |--4--6/-4-7-9--6-7----------||   X4
G |--4--4/-2-7-9--6-7----------||
C |--4-------7-9--6-7----------||


D |-----------------||
A |-----------------||
F |---6~------------||
C |---4~------------||
G |---4~------------||
C |---4~------------||

D |---5---5---5---5---5---5---5---5----||
A |----------------7----------------7--||
F |--6--6-------6----6--6-------6------||
C |---------4---------------4----------||  X4
G |------------------------------------||
C |------------------------------------||


D |--2--------------||
A |--2--------------||
F |--2--------------||
C |--4--------------||
G |--4--------------||
C |-----------------||


D |----------------------------||
A |----------------------------||
F |-----6/-4-------------------||
C |--4--6/-4-7-9--6-7----------||   X2
G |--4--4/-2-7-9--6-7----------||
C |--4-------7-9--6-7----------||
Comments