System Of A Down - Question Chords & Tabs

 

Question Chords & Tabs

System Of A Down Chords & Tabs

Version: 1 Type: Bass Tab 0 ratings
1 star 2 stars 3 stars 4 stars 5 stars
comments

Question Bass Tab

Band- System Of A Down
Song- Question!

F||------------------|------------------|------------------|
C||------------------|------------------|------------------|
G||------------------|------------------|------------------|
C||------------------|------------------|------------------|


                                                               
---------------------|--------------------|-------------------|
---------------------|--------------------|-------------------|
---------------------|--------------------|-------------------|
--12----2------------|--------------12----|--0----------------|


                                                                
-----------------------------||--------------------------------|
-----------------------------||*-------------------------------|
-----------------------------||*-------------------------------|
--0--0-0--0-0-0--0--0-0--0-0-||---5--2-2-2-2-5--2-2-2-2-5--2-2-|


                                                               
------------------------------|-------------------------------|
------------------------------|-------------------------------|
------------------------------|-------------------------------|
--5--2-2-2-2-5--2-2-5--2-2-5--|--4--0-0-0-0-4--0-0-0-0-4--0-0-|


                                                                     
-------------------------------||-----------------------------------|
------------------------------*||*----------------------------------|
------------------------------*||*--0-0-0-2-0-0-0-2-0-0-0-2-0-0-0-2-|
--4--0-0-0-0-4--0-0-4--0-0-4---||-----------------------------------|


                                                                     
-------------------------------||-----------------------------------|
------------------------------*||*----------------------------------|
------------------------------*||*----------------------------------|
--3----0-3-0-3-0-3-0-3-0-3-3---||---5-5-5-7-5-5-5-7-5-5-5-7-5-5-5-7-|


                                                                  
-------------------------------||--------------------------------|
------------------------------*||*-------------------------------|
------------------------------*||*-------------------------------|
--1----0-1-0-1-0-1-0-1-0-1-1---||---5--2-2-2-2-5--2-2-2-2-5--2-2-|


                                                               
------------------------------|-------------------------------|
------------------------------|-------------------------------|
------------------------------|-------------------------------|
--5--2-2-2-2-5--2-2-5--2-2-5--|--4--0-0-0-0-4--0-0-0-0-4--0-0-|


                                                                     
-------------------------------||-----------------------------------|
------------------------------*||*----------------------------------|
------------------------------*||*--0-0-0-2-0-0-0-2-0-0-0-2-0-0-0-2-|
--4--0-0-0-0-4--0-0-4--0-0-4---||-----------------------------------|


                                                                     
-------------------------------||-----------------------------------|
------------------------------*||*----------------------------------|
------------------------------*||*----------------------------------|
--3----0-3-0-3-0-3-0-3-0-3-3---||---5-5-5-7-5-5-5-7-5-5-5-7-5-5-5-7-|


                                                                 
-------------------------------||-------------------------------|
------------------------------*||-------------------------------|
------------------------------*||-------------------------------|
--1----0-1-0-1-0-1-0-1-0-1-1---||--5--2-2-2-2-5--2-2-2-2-5--2-2-|


                                                               
------------------------------|-------------------------------|
------------------------------|-------------------------------|
------------------------------|-------------------------------|
--5--2-2-2-2-5--2-2-5--2-2-5--|--4--0-0-0-0-4--0-0-0-0-4--0-0-|


                                                               
------------------------------|-------------------------------|
------------------------------|-------------------------------|
------------------------------|-------------------------------|
--4--0-0-0-0-4--0-0-4--0-0-4--|--5--2-2-2-2-5--2-2-2-2-5--2-2-|


                                                               
------------------------------|-------------------------------|
------------------------------|-------------------------------|
------------------------------|-------------------------------|
--5--2-2-2-2-5--2-2-5--2-2-5--|--4--0-0-0-0-4--0-0-0-0-4--0-0-|


                                                            
-----------------------------|-----------------------------|
-----------------------------|-----------------------------|
-----------------------------|--9--9-9--9-9-9--9--9-9--9-9-|
--0--0-0--0-0-0--0--0-0--0-0-|--0--0-0--0-0-0--0--0-0--0-0-|


                                                                       
-----------------------------|----------------------------------------|
-----------------------------|----------------------------------------|
--9--9-9--9-9-9--9--9-9--9-9/|--11--11-11--11-11-11--11--11-11--11-11-|
--0--0-0--0-0-0--0--0-0--0-0-|--0---0--0---0--0--0---0---0--0---0--0--|


                                         
----------------------------------------|
----------------------------------------|
--11--11-11--11-11-11--11--11-11--11-11/|
--0---0--0---0--0--0---0---0--0---0--0--|


                                         
----------------------------------------|
----------------------------------------|
--12--12-12--12-12-12--12--12-12--12-12-|
--0---0--0---0--0--0---0---0--0---0--0--|


                                                                                
----------------------------------------|--------------------------------------|
----------------------------------------|--------------------------------------|
--12--12-12--12-12-12--12--12-12--12-12/|--14--14-14--14-14/-12-12/-12/11--11--|
--0---0--0---0--0--0---0---0--0---0--0--|--0---0--0---0--0---0--0---0--0---0---|

[ Tab from: http://www.guitartabs.cc/tabs/s/system_of_a_down/question_btab.html ]
                                                            
-----------------------------|-----------------------------|
-----------------------------|-----------------------------|
--9--9-9--9-9-9--9--9-9--9-9-|--9--9-9--9-9-9--9--9-9--9-9/|
--0--0-0--0-0-0--0--0-0--0-0-|--0--0-0--0-0-0--0--0-0--0-0-|


                                         
----------------------------------------|
----------------------------------------|
--11--11-11--11-11-11--11--11-11--11-11-|
--0---0--0---0--0--0---0---0--0---0--0--|


                                         
----------------------------------------|
----------------------------------------|
--11--11-11--11-11-11--11--11-11--11-11/|
--0---0--0---0--0--0---0---0--0---0--0--|


                                         
----------------------------------------|
----------------------------------------|
--12--12-12--12-12-12--12--12-12--12-12-|
--0---0--0---0--0--0---0---0--0---0--0--|


                                                                                
----------------------------------------|--------------------------------------|
----------------------------------------|--------------------------------------|
--12--12-12--12-12-12--12--12-12--12-12/|--14--14-14--14-14/-12-12/-12/11--11--|
--0---0--0---0--0--0---0---0--0---0--0--|--0---0--0---0--0---0--0---0--0---0---|


                                                                               
------------------|------------------|------------------|---------------------|
------------------|------------------|------------------|---------------------|
------------------|------------------|------------------|---------------------|
------------------|------------------|------------------|--12----4------------|


                                                                       
--------------------|-------------------|-----------------------------|
--------------------|-------------------|-----------------------------|
--------------------|-------------------|-----------------------------|
--------------12----|--0----------------|--0--0-0--0-0-0--0--0-0--0-0-|


                                                                 
|--------------------------------|------------------------------|
|*-------------------------------|------------------------------|
|*-------------------------------|------------------------------|
|---5--2-2-2-2-5--2-2-2-2-5--2-2-|--5--2-2-2-2-5--2-2-5--2-2-5--|


                                                                 
-------------------------------|-------------------------------||
-------------------------------|------------------------------*||
-------------------------------|------------------------------*||
--4--0-0-0-0-4--0-0-0-0-4--0-0-|--4--0-0-0-0-4--0-0-4--0-0-4---||


                                                                     
-----------------------------------|-------------------------------||
*----------------------------------|------------------------------*||
*--0-0-0-2-0-0-0-2-0-0-0-2-0-0-0-2-|------------------------------*||
-----------------------------------|--3----0-3-0-3-0-3-0-3-0-3-3---||


                                                                  
----------------------------------|------------------------------|
----------------------------------|------------------------------|
----------------------------------|------------------------------|
--5-5-5-7-5-5-5-7-5-5-5-7-5-5-5-7-|--1----0-1-0-1-0-1-0-1-0-1-1--|


                                                                   
----------------------------------|-------------------------------|
----------------------------------|-------------------------------|
----------------------------------|---------------------------12/-|
--5-5-5-7-5-5-5-7-5-5-5-7-5-5-5-7-|--1----0-1-0-1-0-1-0-1-0-0-12/-|


                                                            
-----------------------------|-----------------------------|
-----------------------------|-----------------------------|
--9--9-9--9-9-9--9--9-9--9-9-|--9--9-9--9-9-9--9--9-9--9-9/|
--0--0-0--0-0-0--0--0-0--0-0-|--0--0-0--0-0-0--0--0-0--0-0-|


                                         
----------------------------------------|
----------------------------------------|
--11--11-11--11-11-11--11--11-11--11-11-|
--0---0--0---0--0--0---0---0--0---0--0--|


                                         
----------------------------------------|
----------------------------------------|
--11--11-11--11-11-11--11--11-11--11-11/|
--0---0--0---0--0--0---0---0--0---0--0--|


                                         
----------------------------------------|
----------------------------------------|
--12--12-12--12-12-12--12--12-12--12-12-|
--0---0--0---0--0--0---0---0--0---0--0--|


                                                                                
----------------------------------------|--------------------------------------|
----------------------------------------|--------------------------------------|
--12--12-12--12-12-12--12--12-12--12-12/|--14--14-14--14-14/-12-12/-12/11--11--|
--0---0--0---0--0--0---0---0--0---0--0--|--0---0--0---0--0---0--0---0--0---0---|


                                         
--11--11-11--11-11-11--11--11-11--11-11-|
--0---0--0---0--0--0---0---0--0---0--0--|
----------------------------------------|
----------------------------------------|


                                         
--11--11-11--11-11-11--11--11-11--11-11-|
--0---0--0---0--0--0---0---0--0---0--0--|
----------------------------------------|
----------------------------------------|


                                         
--13--13-13--13-13-13--13--13-13--13-13-|
--0---0--0---0--0--0---0---0--0---0--0--|
----------------------------------------|
----------------------------------------|


                                         
--13--13-13--13-13-13--13--13-13--13-13-|
--0---0--0---0--0--0---0---0--0---0--0--|
----------------------------------------|
----------------------------------------|


                                         
--14--14-14--14-14-14--14--14-14--14-14-|
--0---0--0---0--0--0---0---0--0---0--0--|
----------------------------------------|
----------------------------------------|


                                                                                
--14--14-14--14-14-14--14--14-14--14-14-|--16--16-16--16-16--14-14--14-13--13--|
--0---0--0---0--0--0---0---0--0---0--0--|--0---0--0---0--0---0--0---0--0---0---|
----------------------------------------|--------------------------------------|
----------------------------------------|--------------------------------------|
Comments