System Of A Down - Q Bert Chords & Tabs

 

Q Bert Chords & Tabs

System Of A Down Chords & Tabs

Version: 2 Type: Tab 0 ratings
1 star 2 stars 3 stars 4 stars 5 stars
comments

Q Bert Tab

   
Artist: System Of A Down (SOAD)
Song: Q-BERT
Tuning: Drop D down 1 step (C,G,C,F,A,D)
Tabbed by: Adam Eugenio (LinkinParkX13@hotmail.com)(AIM: X SiMPLiSTiK)

Intro:

D |-15-----| Play 20 Times FAST!
A |--------|
F |--------|
C |--------|
G |--------|
C |--------|

Pre-Verse:

D |---------------------------|
A |---------------------------|
F |---------------------------|
C |-4-4-4-4-4-4-4-4-4-4-4-4-4-|
G |-4-4-4-4-4-4-4-4-4-4-4-4-4-|
C |-4-4-4-4-4-4-4-4-4-4-4-4-4-|

Verse:

D |---------------------------|
A |-11-8-10-7-----------------|
F |---------------------------|
C |-----------4-4-4-4-4-4-4-4-|
G |-----------4-4-4-4-4-4-4-4-|
C |-----------4-4-4-4-4-4-4-4-| (4 times)

Chorus:

D |--------------------------------------------------|
A |--------------------------------------------------|
F |--------------------------------------------------|
C |-4-4-4-11-11-11-6-6-6-7-7-7-4-4-4-11-7-10-6-9-5-4-|
G |-4-4-4-11-11-11-6-6-6-7-7-7-4-4-4-11-7-10-6-9-5-4-|
C |-4-4-4-11-11-11-6-6-6-7-7-7-4-4-4-11-7-10-6-9-5-4-| (2 times)

Pre Verse:

D |-----------------|
A |-----------------|
F |-----------------|
C |-4-4-4-4-4-4-4-4-|
G |-4-4-4-4-4-4-4-4-|
C |-4-4-4-4-4-4-4-4-| (4 times)

Verse:
[ Tab from: http://www.guitartabs.cc/tabs/s/system_of_a_down/q_bert_tab_ver_2.html ]
D |---------------------------|
A |-11-8-10-7-----------------|
F |---------------------------|
C |-----------4-4-4-4-4-4-4-4-|
G |-----------4-4-4-4-4-4-4-4-|
C |-----------4-4-4-4-4-4-4-4-| (4 times)

Chorus:

D |--------------------------------------------------|
A |--------------------------------------------------|
F |--------------------------------------------------|
C |-4-4-4-11-11-11-6-6-6-7-7-7-4-4-4-11-7-10-6-9-5-4-|
G |-4-4-4-11-11-11-6-6-6-7-7-7-4-4-4-11-7-10-6-9-5-4-|
C |-4-4-4-11-11-11-6-6-6-7-7-7-4-4-4-11-7-10-6-9-5-4-| (2 times)

Bridge:

D |---------------------------------|
A |---------------------------------|
F |---------------------------------|
C |-3-3-3-3-3-3-3-3-4-4-4-4-4-4-4-4-|
G |-3-3-3-3-3-3-3-3-4-4-4-4-4-4-4-4-|
C |-3-3-3-3-3-3-3-3-4-4-4-4-4-4-4-4-| (2 times)

Chorus:

D |--------------------------------------------------|
A |--------------------------------------------------|
F |--------------------------------------------------|
C |-4-4-4-11-11-11-6-6-6-7-7-7-4-4-4-11-7-10-6-9-5-4-|
G |-4-4-4-11-11-11-6-6-6-7-7-7-4-4-4-11-7-10-6-9-5-4-|
C |-4-4-4-11-11-11-6-6-6-7-7-7-4-4-4-11-7-10-6-9-5-4-| (2 times)

Post Chorus:

D |---------------------------------|
A |---------------------------------|
F |---------------------------------|
C |-4-11-6-7-4-11-11-11-7-7-7-6-6-6-|
G |-4-11-6-7-4-11-11-11-7-7-7-6-6-6-|
C |-4-11-6-7-4-11-11-11-7-7-7-6-6-6-| (2 times)

Outro:

D |-------------<6>-|
A |-----------------|
F |-----------------|
C |-4-4-4-4-4-4-----|
G |-4-4-4-4-4-4-----|
C |-4-4-4-4-4-4-----| (4 times)
Comments