System Of A Down - Psycho Chords & Tabs

 

Psycho Chords & Tabs

System Of A Down Chords & Tabs

Version: 4 Type: Tab 0 ratings
1 star 2 stars 3 stars 4 stars 5 stars
comments

Psycho Tab

Psycho
System of a Down
distortednetwerk.vze.com
100% Correct...


Intro (part 1)
:-----------------------------------------------------------
:-----------------------------------------------------------
:-----------------------------------------------------------
:-----------------------------------------------------------
:-----------------------------------------------------------
:2-2-22-22-2222-2-2-22-22-2222-0-0-00-00-0000-0-0-00-00-0000


Intro (part 2)
:12-x-12-x-12-xx-12-x-12-x-12-x-12-xx-12-xx-10-x-10xx-10-x-10-xx
:---------------------------------------------------------------
:---------------------------------------------------------------
:---------------------------------------------------------------
:---------------------------------------------------------------
:---------------------------------------------------------------

:10-xx-10-xx-10-x-10-xx
:----------------------
:----------------------
:----------------------
:----------------------
:----------------------


Intro (part 3)-Gradually Bend String
:-13-13-13-13
:------------
:------------
:------------
:------------
:------------


Riff 1: 
Psycho!!...
:---------
:---------
:---------
:---------
:22-2-22-2
:22-2-22-2


Riff 2:
Psycho groupie....
:-------------------
:-------------------
:-------------------
:-------------------
:2----2----2----2---
:2-33-2-33-2-33-2-33



Riff 3:
And Stop...
:-------------------------------------
:-------------------------------------
:-7--7-7--7-7-7-7s10--10-1010-10--10--
:-7--7-7--7-7-7-7s10--10-1010-10--10--
:-5--5-5--5-5-5-5s8---8--8-8--8---8---
:-------------------------------------


Riff 4:
Out.....Oh......
:--------------------
:--------------------
:--------------------
:2-------0-2--------0
:2-------0-2---------
:2-------0-2---------


Bridge:
So you want the world...
:----------------------------------------------------------------------
:---3-3--3---3-33----------------------3--3--3-33-3--------------------
:1--1-1--1---1-11-2-22-2454b-4-4222----2--2--2-24-2--------------------
:2---------2------0-----------------3----3-----------------------------
:---------------------------------------------------22-2-22-2-22-2-22-2
:---------------------------------------------------22-2-22-2-22-2-22-2
[ Tab from: http://www.guitartabs.cc/tabs/s/system_of_a_down/psycho_tab_ver_4.html ]
So you want to see the show...
:--------------------------------------------------------------------
:----3-3-3---3-33---------------------3-3-3---333--------------------
:-1--1-1-1---1-11-2-22455s7-5-54422---2-2-2---242--------------------
:-2--------2------0----------------3--------3------------------------
:-------------------------------------------------22-2-22-2-22-2-22-2
:-------------------------------------------------22-2-22-2-22-2-22-2

Solo: (*sigh* here we go)
:--------------------------------------------------------------------
:10h12-------1012-12b-1212-13-12h13h12h10----10h12--10-9-910-10s12-10
:--------------------------------------------------------------------
:--------------------------------------------------------------------
:--------------------------------------------------------------------
:--------------------------------------------------------------------

:--------------12-----------------------------------------------------
:10h12----1012------1212-13-12h13h12h10b10b10b-10-10-10h12--10-10-99-9
:---------------------------------------------------------------------
:---------------------------------------------------------------------
:---------------------------------------------------------------------
:---------------------------------------------------------------------

:------------------------
:-910-9b9-91012109-10--10
:---------------------9--
:------------------------
:------------------------
:------------------------

Outro:
:--0--0--0--0--0--0--0--0--0--0--0--0--0--0--0--0--0--0--0--0--0--0--0-0
:12-12-12-12-12-12-10-12-13-13-13-12-12-10-10-10-10-10-10-10-12-12-10-9-
:-----------------------------------------------------------------------
:-----------------------------------------------------------------------
:-----------------------------------------------------------------------
:-----------------------------------------------------------------------
                                  
:-----0--0--0--0--0--0--0--0--0--0--0--0--0--0--0--0--0--0--0--0--0--0
:91012-12-12-12-12-12-10-12-12-12-12-12-12-10-12-15-15-15-13-13-12-10-
:---------------------------------------------------------------------
:---------------------------------------------------------------------
:---------------------------------------------------------------------
:---------------------------------------------------------------------
[ L e t R i n g ]
:--0--0--0--00
:10-10-12-10-9
:-------------
:-------------
:-------------
:-------------


Song order:
Intro Part 1- 2x
Intro Part 2- 2x
Intro Part 3- 7x (while gradually bending)
Riff 1      - 4x
Riff 2      - 8x
Riff 3      - 1x
Riff 1      - 2x
Riff 2      - 8x
Riff 4      - 1x
Bridge      - 1x
Riff 2      - 8x
Riff 3      - 1x
Riff 4      - 1x
Bridge      - 1x
Riff 1      - 1x
Solo        - 1x
Outro       - 1x
Comments