System Of A Down - Psycho Chords & Tabs

 

Psycho Chords & Tabs

System Of A Down Chords & Tabs

Version: 1 Type: Bass Tab 0 ratings
1 star 2 stars 3 stars 4 stars 5 stars
comments

Psycho Bass Tab

   
Artist: System of a Down
Album: Toxicity
Track: 13
Song: Psycho
Tabbed By: Jeff Tiemann (Heater794)
Tuning: C-G-C-F

Intro

F||----------------|----------------|
C||*----------2x---|----------2x----|
G||*---------------|----------------|
C||--2-22-222-2222-||-0-00-000-0000-|


                         x2

F|----||------------------||
C|----||------------------||
G|----||------------------||
C|--/-||--22--22--22--22--||


riff 1                      x2

F|--------------------------||
C|--------------------------||
G|--------------------------||
C|--22-3--22-3--22-3--22-3--||


F|---------------------|------------------|
C|---------------------|------------------|
G|---------------------|------------------|
C|--0--0--0-00--0-0-0--|-/3--3--3--3--32--|


F|---------------------|--------------|-------------|
C|---------------------|--------------|-------------|
G|---------------------|--------------|-------------|
C|--0--0--0-00--0-0-0--|-/3--3--3--3--|--2~----0-2--|


F|--------------------|----------|----------------------|
C|--------------------|----------|----------------------|
G|--------------------|--riff-I--|----------------------|
C|--0-2~---2-0~--/3~--|----------|--2~--0~--0-2-3--(3)--|

[ Tab from: http://www.guitartabs.cc/tabs/s/system_of_a_down/psycho_btab.html ]
F|---------------------|---------------|-------------|
C|---------------------|---------------|-------------|
G|---------------------|---------------|-------------|
C|--0--0--0-00--0-0-0--|--/3--3--3--3--|--2~---0-2~--|


F|-----------------------------|----------|-------------------------|
C|-----------------------------|----------|-------------------------|
G|-----------------------------|--riff-I--|-------------------------|
C|--0-2~--0~--0-2-3--(3)--(3)--|----------|--2~--0~--0-2-3--(3)-(3)-|


riff I


F|-------------------------|----------------------------------|
C|-------------------------|----------------------------------|
G|-------------------------|----------------------------------|
C|--2~--0~--/3-3/5-5\3-\2~-|-0-2~--2-0~--0-2-3--3-3/5-5\3-\2--|


F|---------------------||---------------||---------------||
C|---------------------||*-------------*||*-------------*||
G|---------------------||*-------------*||*-------------*||
C|--2--2--2-22--2-2-2--||--22-22-22-22--||--00-00-00-00--||


F|------------------------------|----------------------------|
C|------------------------------|----------------------------|
G|------------------------------|----------------------------|
C|--/33-33-33-33-/55-55-\33-33--|--22-22-22-22-22-22-22-2-0--|


F||---------------||---------------||---------------------------|
C||*-------------*||*-------------*||---------------------------|
G||*-------------*||*-------------*||---------------------------|
C||--22-22-22-22--||--00-00-00-00--||--/3---3---3/5--5\3--\2~~--|
Comments