System Of A Down - Prison Song Chords & Tabs

 

Prison Song Chords & Tabs

System Of A Down Chords & Tabs

Version: 3 Type: Tab 2 ratings
1 star 2 stars 3 stars 4 stars 5 stars
comments

Prison Song Tab

Song: "Prison Song"
Artist: System of A Down
Album: Toxicity
Transcribed By: Bryan Bramlett (bryanmb87@aol.com)

INTRO:
|-----------------------------------------|
|-----------------------------------------|
|-----------------------------------------|
|-0------0-1-3-1-0-1-3-1-0-1-3-1-0-1-8888-|
|-0------0-1-3-1-0-1-3-1-0-1-3-1-0-1-8888-|
|-0------0-1-3-1-0-1-3-1-0-1-3-1-0-1-8888-|

|----------------------------------------------------------------------|
|----------------------------------------------------------------------|
|----------------------------------------------------------------------|
|-0-1-3-1-0-1-3-1-0-1-3-1-0-1-8888-----0-1-3-1-0-1-3-1-0-1-3-1-----8888|
|-0-1-3-1-0-1-3-1-0-1-3-1-0-1-8888-----0-1-3-1-0-1-3-1-0-1-3-1-----8888|
|-0-1-3-1-0-1-3-1-0-1-3-1-0-1-8888-----0-1-3-1-0-1-3-1-0-1-3-1-----8888|

CHORUS:
|---------------------------------------------------------|
|---------------------------------------------------------|
|---------------------------------------------------------|
|-0-1-0-1-0-1-0--0-1-0-1-0-1-0--0-1-0-1-0-1-0--0-1-0-8888-|
|-0-1-0-1-0-1-0--0-1-0-1-0-1-0--0-1-0-1-0-1-0--0-1-0-8888-|
|-0-1-0-1-0-1-0--0-1-0-1-0-1-0--0-1-0-1-0-1-0--0-1-0-8888-|
[ Tab from: http://www.guitartabs.cc/tabs/s/system_of_a_down/prison_song_tab_ver_3.html ]
BRIDGE:
|----------------------------------|
|----------------------------------|
|----------------------------------|
|-0-1-3-1-0-1-3-1-0-1-3-1-0-1-8888-|
|-0-1-3-1-0-1-3-1-0-1-3-1-0-1-8888-|
|-0-1-3-1-0-1-3-1-0-1-3-1-0-1-8888-|

VERSE:
|---------|
|---------|
|------|
|---------|
|-5-----6-|
|---------|

VERSE FILL: (palm mute)
|--------------|
|--------------|
|--------------|
|--------------|
|-0-8-0-8-0-88-|
|-0-8-0-8-0-88-|

FILL 2:
|---------|
|---------|
|---------|
|-0-1-0-8-|
|-0-1-0-8-|
|-0-1-0-8-|

INTERLUDE:
|-----------------|
|-----------------|
|-7---------6-----|
|---8---8-7---7---|
|-----8---------7-|
|-----------------|

INTERLUDE 2:
|----------------------------------|
|----------------------------------|
|----------------------------------|
|-0-0-0-0-0-0-0-0-0-0-0-0-0-0-8888-|
|-0-0-0-0-0-0-0-0-0-0-0-0-0-0-8888-|
|-0-0-0-0-0-0-0-0-0-0-0-0-0-0-8888-|

INTERLUDE 3:
|-----------------------------|
|-----------------------------|
|-----------------------------|
|-0-0--00-0--00-0--00-0--8888-|
|-0-0--00-0--00-0--00-0--8888-|
|-0-0--00-0--00-0--00-0--8888-|
PM. .  .. .  .. .  .. .  ....

OUTRO:
|---------------1-|
|---------------3-|
|---7------6----2-|
|-----8------7--0-|
|-8------7------0-|
|---------------0-|

Comments