System Of A Down - Prison Song Live Outro Chords & Tabs

 

Prison Song Live Outro Chords & Tabs

System Of A Down Chords & Tabs

Version: 3 Type: Tab 0 ratings
1 star 2 stars 3 stars 4 stars 5 stars
comments

Prison Song Live Outro Tab

   
Artist:System of a down
Song: Prison Song Outro from Holland.

FIG A.
D|----1--------3--1--0---|------------------------|
A|-------3-------------3-|-------3-----------5----|
F|----------2------------|------------------------|
C|-0---------------------|----3-----3-----5-----5-|
G|-----------------------|-1-----------3----------|
C|-----------------------|------------------------|
[ Tab from: http://www.guitartabs.cc/tabs/s/system_of_a_down/prison_song_live_outro_tab_ver_3.html ]
FIG B.
D|----1----------1-------|------------------------|
A|-------3----------3----|----1--------1--------1-|
F|----------2----------2-|------------------------|
C|-0---------------------|-------2--------2-------|
G|-----------------------|-3--------3--------3----|
C|-----------------------|------------------------|

FIG C.
D|----1----------1-------|------------------------|
A|-------3----------3----|-------1-----------1--1-|
F|----------2----------2-|------------------------|
C|-0---------------------|----2-----2-----2-------|
G|-----------------------|-3-----------3----------|
C|-----------------------|------------------------|

Song structure:
Fig A. x2
Fig B. X1
Fig A. x1
Fig C. X1
Fig A. X1
Fig B. X1
Fig A. X1
Fic C. X1
Comments