System Of A Down - Pluck Chords & Tabs

 

Pluck Chords & Tabs

System Of A Down Chords & Tabs

Version: 2 Type: Tab 0 ratings
1 star 2 stars 3 stars 4 stars 5 stars
comments

Pluck Tab

-------------------------------------------------------------------------------
			     P.L.U.C.K. - System of a Down
-------------------------------------------------------------------------------
Palm Mute the whole song  / = Slide   h = Hammer on
By:Metalfreak794@yahoo.com
Intro
e|--------------------------------|
B|--------------------------------|
G|--9-9-9-9-9-9-9-9-9-9-9-9-9-9-9-|
D|--------------------------------|
A|--------------------------------|
E|--------------------------------|

e|-----------------------------------------|
B|-----------------------------------------|
G|-----------------------------------------|
D|--2-2-2-2-2-2-2-2-2-2-2-2--2--2--2--2--2-|
A|--2-2-2-2-2-2-2-2-2-2-2-2--2--2--2--2--2-|
E|--2-2-2-2-2-2-2-2-2-2-2-2--2--2--2--2--2-|(x2)
[ Tab from: http://www.guitartabs.cc/tabs/s/system_of_a_down/pluck_tab_ver_2.html ]
e|--------------------------|
B|--------------------------|
G|--------------------------|
D|--2-2-2-2-2-2-2-2-2-2-2h3-|
A|--2-2-2-2-2-2-2-2-2-2-2h3-|
E|--2-2-2-2-2-2-2-2-2-2-2h3-|
Verse
e|-------------------------------------------------|
B|-------------------------------------------------|
G|-------------------------------------------------|
D|--7/9-9-9-99/13-13-13-1313/15-15-15-10/-13-13-13-|
A|--5/7-7-7-77/11-11-11-1111/13-13-13--8/-11-11-11-|
E|-------------------------------------------------|
Chorus
e|--------------|
B|--------------|
G|--------------|
D|--2-2-2-2-0-2-|
A|--2-2-2-2-0-2-|
E|--2-2-2-2-0-2-|
Interlude/Outro
e|----------------------------------------------------|
B|----------------------------------------------------|
G|----------------------------------------------------|
D|--2-2-2-2------------------5--5--5-5--3-3---3-3-3-3-|
A|--2-2-2-2----3-3-3-3/5/3-0-5--5--5-5--3-3---3-3-3-3-|
E|--2-2-2-2------------------5--5--5-5--3-3---3-3-3-3-|
Comments