System Of A Down - Pluck Chords & Tabs

 

System Of A Down Chords & Tabs

Version: 1 Type: Tab 0 ratings
1 star 2 stars 3 stars 4 stars 5 stars
comments

Pluck Tab

   
	     SONG: P.L.U.C.K.
	     BAND: System Of A Down
	    ALBUM: System Of A Down
   TRANSCRIBED BY: Kenny Luong and Mike Mahon
	     DATE: Unknown

 ----------------------------------------------------------------------------------------------

	TUNING: tune your guitar down one full step and then drop d (C,G,C,F,A,d)


     INTRO:

    D|---------------------------------|
    A|---------------------------------| ** palm mute throughout and 
    F|--9-9-9-9-9-9-9-9-9-9-9-9-9-9-9--| graduately release at end of
    C|---------------------------------| bar
    G|---------------------------------|
    C|---------------------------------|

                 (play three times)                    (play once)
    D|-----------------------------------------|--------------------------|
    A|-----------------------------------------|--------------------------|
    F|-----------------------------------------|--------------------------|
    C|--2-2-2-2-2-2-2-2-2-2-2-2--2--2--2--2--2-|--2-2-2-2-2-2-2-2-2-2-2-2-|
    G|--2-2-2-2-2-2-2-2-2-2-2-2--2--2--2--2--2-|--2-2-2-2-2-2-2-2-2-2-2-2-|
    C|--2-2-2-2-2-2-2-2-2-2-2-2--2--2--2--2--2-|--2-2-2-2-2-2-2-2-2-2-2-2-|
      pm.......................
[ Tab from: http://www.guitartabs.cc/tabs/s/system_of_a_down/pluck_tab.html ]
    D|--------------------------|
    A|--------------------------|
    F|--------------------------|
    C|--2-2-2-2-2-2-2-2-2-2-2-2-|
    G|--2-2-2-2-2-2-2-2-2-2-2-2-|
    C|--2-2-2-2-2-2-2-2-2-2-2-2-|
      pm...............

    D|--------------------------|
    A|--------------------------|
    F|--------------------------|
    C|--2-2-2-2-2-2-2-2-2-2-2h3-|
    G|--2-2-2-2-2-2-2-2-2-2-2h3-|
    C|--2-2-2-2-2-2-2-2-2-2-2h3-|
      pm...

     VERSE:

    D|-------------------------------------------------|
    A|-------------------------------------------------|
    F|--7/9-9-9-99/13-13-13-1313/15-15-15-10/13-13-13--|
    C|-------------------------------------------------|
    G|--5/7-7-7-77/11-11-11-1111/13-13-13--8/11-11-11--|
    C|-------------------------------------------------|

     CHORUS:

    D|--------------|
    A|--------------|
    F|--------------|
    C|--2-2-2-2-0-2-|
    G|--2-2-2-2-0-2-|
    C|--2-2-2-2-0-2-|
      pm.......

     INTERLUDE/OUTRO:
    
    D|------------------------------------------|---------|
    A|------------------------------------------|---------|
    F|------------------------------------------|---------|
    C|--2-2-2-2------------------5--5--5-5--3-3-|-3-3-3-3-|
    G|--2-2-2-2----3-3-3-3/5/3-0-5--5--5-5--3-3-|-3-3-3-3-|
    C|--2-2-2-2------------------5--5--5-5--3-3-|-3-3-3-3-|


Comments
System Of A Down chords | System Of A Down Pluck tab