System Of A Down - Pluck Chords & Tabs

 

Pluck Chords & Tabs

System Of A Down Chords & Tabs

Version: 4 Type: Bass Tab 0 ratings
1 star 2 stars 3 stars 4 stars 5 stars
comments

Pluck Bass Tab

   
Artist: System Of A Down
Song: P.L.U.C.K.
Album: Self-Titled
Correction
Tabbed by Michael Hadad
Original Tab by Matthew Cook

this tab was close, if u listen to the
CD it sounds more like this

Tuning CGCF (low to high)

Intro (0:11)
F---------------------------------
C---------------------------------
G---------------------------------
C--4-4-4-4-3--4-4-4-4-3--4-4-4-3-3

Intro 2
F-----------------------------
C-----------------------------
G-----------------------------
C--2-2-3-2-3-2-3-2-3-2-2-2-3--

Intro 3 (0:24)
F--------------------------------
C--------------------------------
G--------------------------------
C--2-2-2-5--2-2-4-5--2-2-5-------

Intro 4 (0:35)
F--------------------------------
C--------------------------------
G--------------------------------
C-2-2--3-2-0-4-5-2-2-3-2-0-4-5---

Verse w/bass (1:05)
F-------------------------------
C-------------------------------
G-------------------------------
C-0-0--0-0--0-0--0-0--0-0--0-0--

[I used to play the
[ Tab from: http://www.guitartabs.cc/tabs/s/system_of_a_down/pluck_btab_ver_4.html ]
G-5/7-7-7-7-7/11-11-11-11/13-13-13-13\8/11-11-11-11

Thing, but when u listen to the CD itz open C's.
If you want you can play the G thing.
I know alot of people probably think im wrong,
but listen to the CD before you critize =)]
And thanks to David for pointing that out to me

Prechorus (1:15)
F-------------------------------------
C-------------------------------------
G-------------------------------------
C-0-0-2-4--0-0-2-4--0-0-2-4--0-0-2-4--

Chorus (1:54)
F---------------------------------------
C---------------------------------------
G-----------3-3-3-5-3-0-----------------
C--2--2-2-2--------------5-5-5-3-3-3-3--


F---------------------------------------
C---------------------------------------
G-----------3-3-3-5-3-0-----------------
C--2--2-2-2--------------5-5-5-3-3-2-2--

Structure
Intro 1 X 3
Intro 2 X 3
Intro 3 X 7
Verse X 2
Prechorus X 2
Verse X 2
Prechorus X 4
Chorus X 2
Intro 3 X 3
Intro 4 X 7
Prechorus X 4
Chorus X 2

Any questions or comments,
please e-mail me @ hadazz@hotmial.com
Comments