System Of A Down - Pluck Chords & Tabs

 

Pluck Chords & Tabs

System Of A Down Chords & Tabs

Version: 2 Type: Bass Tab 0 ratings
1 star 2 stars 3 stars 4 stars 5 stars
comments

Pluck Bass Tab

Here is P.L.U.C.K. by System of A down 
this song kicks all out ass. I play this in drop D, I know SOAD uses a lower tuning, but I 
never tune down that low. So here you are kiddies... 
Tabbed By Joe (Deftonejoe@hotmail.com) 
intro (under guitar doing the whanahnah part) 
g------------------------------------- 
d---------------------------------------- 
a-------------------------------------- 
D-4444--44--4444-44444--------------- 
[ Tab from: http://www.guitartabs.cc/tabs/s/system_of_a_down/pluck_btab_ver_2.html ]
first heavy part 
g----------------------------------- 
d----------------------------------- 
a----------------------------------- 
D-0000000000000--------------------- 
  

WALK DOWN!! part 
g----------------------------------- 
d----------------------------------- 
a----------------------------------- 
D-2223---22-22-23------------------ 

verse (and those are elevens, not ones for you impudent bastards:) 
g---------------------------------- 
d---------------------------------- 
a-5/7-7-7-77/11-11-11-11/13-1313-13\8/11-11---- 
D----------------------------------- 
  

chorus 
g---------------------------------- 
d---------------------------------- 
a----------33-33h5-3h0---------------------- 
D-22-22-22-------------5-55-55-5-33-33-33-0 

Comments