System Of A Down - Pictures Chords & Tabs

 

Pictures Chords & Tabs

System Of A Down Chords & Tabs

Version: 1 Type: Tab 0 ratings
1 star 2 stars 3 stars 4 stars 5 stars
comments

Pictures Tab

   
-=Pictures=-System of a down
============
tabs by Javier Rodríguez
(C-G-C-F-A-D)


A
1:----------|
2:----------|
3:----------|
4:-1--0-1-3-|
5:-1--0-1-3-|
6:-1--0-1-3-|


B
             pm.......
1:----------|---------|
2:----------|---------|
3:----------|---------|
4:-1--0-1-3-|-5-3-1-0-|
5:-1--0-1-3-|-5-3-1-0-|
6:-1--0-1-3-|-5-3-1-0-|


C
   pm.........                ........
1:----------------|----------|---------|
2:-9-9-9-9-9-9-9--|----------|---------|
3:-7-7-7-7-7-7-7--|----------|---------|
4:-7-7-7-7-7-7-7--|-1--0-1-3-|-5-3-1-0-|
5:-5-5-5-5-5-5-5--|-1--0-1-3-|-5-3-1-0-|
6:----------------|-1--0-1-3-|-5-3-1-0-|


D
   pm.........      pm.........      pm.........      pm...
1:----------------|----------------|----------------|----------------|
2:-9-9-9-9-9-9-9--|-9-9-9-9-9-9-9--|-9-9-9-9-9-9-9--|-9-9-9-9-9-9-9--|
3:-7-7-7-7-7-7-7--|-7-7-7-7-7-7-7--|-7-7-7-7-7-7-7--|-7-7-7-7-7-7-7--|
4:-7-7-7-7-7-7-7--|-7-7-7-7-7-7-7--|-7-7-7-7-7-7-7--|-7-7-7-7-7-7-7--|
5:-5-5-5-5-5-5-5--|-5-5-5-5-5-5-5--|-5-5-5-5-5-5-5--|-5-5-5-5-5-5-5--|
6:----------------|----------------|----------------|----------------|

[ Tab from: http://www.guitartabs.cc/tabs/s/system_of_a_down/pictures_tab.html ]
E
1:----------------------------------|-------------------------------------|
2:----------------------------------|-------------------------------------|
3:-7----12--11----15--14----12--11--|--8--7----12--11----15--14----12--11-|
4:----------------------------------|-------------------------------------|
5:-5----10---9----13--12----10---9--|--6--5----10---9----13--12----10---9-|
6:----------------------------------|-------------------------------------|


F
1:----|
2:----|
3:-8~-|
4:----|
5:-6~-|
6:----|


G
1:-----------------------------------|-------------------------------|
2:-----------------------------------|-------------------------------|
3:-----------------------------------|-------------------------------|
4:--/--1--0----5--4----8--7----5--4--|--1--0----5--4----8--7----5--4-|
5:--/--1--0----5--4----8--7----5--4--|--1--0----5--4----8--7----5--4-|
6:--/--1--0----5--4----8--7----5--4--|--1--0----5--4----8--7----5--4-|


H
pm......................................................................
1:-----------------|-----------------|-----------------|-----------------|
2:-----------------|-----------------|-----------------|-----------------|
3:-----------------|-----------------|-----------------|-----------------|
4:-1-1-0-0-0-0-0-0-|-5-5-4-4-4-4-4-4-|-8-8-7-7-7-7-7-7-|-5-5-4-4-4-4-4-4-|
5:-1-1-0-0-0-0-0-0-|-5-5-4-4-4-4-4-4-|-8-8-7-7-7-7-7-7-|-5-5-4-4-4-4-4-4-|
6:-1-1-0-0-0-0-0-0-|-5-5-4-4-4-4-4-4-|-8-8-7-7-7-7-7-7-|-5-5-4-4-4-4-4-4-|


I
1:----|
2:----|
3:----|
4:----|
5:----|
6:-1~-|


J
1:---------------------------------------------|
2:------------------------------9-9-9-9-9-9-9--|
3:-7----12--11----15--14----12--7-7-7-7-7-7-7--|
4:------------------------------7-7-7-7-7-7-7--|
5:-5----10---9----13--12----10--5-5-5-5-5-5-5--|
6:---------------------------------------------|



ORDER:
=====

A 8x
B 4x
C 3x
D
E
F
C 3x
D
E
G
H 2x
I
C 3x
D
J
Comments