System Of A Down - Pictures Chords & Tabs

 

Pictures Chords & Tabs

System Of A Down Chords & Tabs

Version: 1 Type: Bass Tab 0 ratings
1 star 2 stars 3 stars 4 stars 5 stars
comments

Pictures Bass Tab

   
-=Pictures=- System of a Down
============
tabs by Javier Rodríguez

A:
F|----------|
C|----------|
G|----------|
C|-1--0-1-3-|

B:
F|----------|---------|
C|----------|---------|
G|----------|---------|
C|-1--0-1-3-|-5-3-1-0-|

c:
F|---------------|----------|---------|
C|---------------|----------|---------|
G|-5-5-5-5-5-5-5-|----------|---------|
C|---------------|-1--0-1-3-|-5-3-1-0-|

D:
F|---------------|---------------|---------------|---------------|
C|---------------|---------------|---------------|---------------|
G|-5-5-5-5-5-5-5-|-5-5-5-5-5-5-5-|-5-5-5-5-5-5-5-|-5-5-5-5-5-5-5-|
C|---------------|---------------|---------------|---------------|

E:
F|--------------------------------|-----------------------------------|
C|--------------------------------|-----------------------------------|
G|-5----10--9----13--12----10--9--|--6--5----10--9----13--12----10--9-|
C|--------------------------------|-----------------------------------|
[ Tab from: http://www.guitartabs.cc/tabs/s/system_of_a_down/pictures_btab.html ]
F:
F|----|
C|----|
G|-6~-|
C|----|

G:
F|---------------------------------|-------------------------------|
C|---------------------------------|-------------------------------|
G|---------------------------------|-------------------------------|
C|-/--1--0----5--4---8--7----5--4--|--1--0----5--4----8--7----5--4-|

H:
F|-----------------|-----------------|-----------------|-----------------|
C|-----------------|-----------------|-----------------|-----------------|
G|-----------------|-----------------|-----------------|-----------------|
C|-1-1-0-0-0-0-0-0-|-5-5-4-4-4-4-4-4-|-8-8-7-7-7-7-7-7-|-5-5-4-4-4-4-4-4-|

I:
F|-------------------------------------------|
C|-------------------------------------------|
G|-5----10--9----13--12----10--5-5-5-5-5-5-5-|
C|-------------------------------------------|


Order:
=====

A: X24
B: X4
c: X3
D:
E:
F:
c: X3
D:
E:
G:
H: X2
c: X3
D:
I:
Comments