System Of A Down - Peephole Chords & Tabs

 

Peephole Chords & Tabs

System Of A Down Chords & Tabs

Version: 8 Type: Tab 0 ratings
1 star 2 stars 3 stars 4 stars 5 stars
comments

Peephole Tab

   
band: system of a down
song: peephole
albulm: self titled

tunning: c g c f a d (of course)

- = palm mute
* = pinch harmonic
p = pull off
h = hammer on
/ = slide up
\ = slide down
^ = bend
~ = let ring

intro 2x's
------------------------------------------    
-----3----3----3----3----3----3----3----3-
---3----3-----3----3----3----3----3----3--
-5----5-----------------------------------
-----------4----5----0----0----4----5-----
------------------------------------------
light distorsion

verse 2x's (on the cd it goes like this)
---------------------------------------------------------------------------------
-3-3----3-3----3-3----3-3----3-3----3-3----3-3----3-3----------------------------
-3-3----3-3----3-3----3-3----3-3----3-3----3-3----3-3----------------------------
---------------------------------------------------------4-4-4-4-4-4-7-7-7-7-7-7-
---------------------------------------------------------4-4-4-4-4-4-7-7-7-7-7-7-
---------------------------------------------------------4-4-4-4-4-4-7-7-7-7-7-7-
 or

verse 2x's(but this is how i play it)
---------------------------------------------------------------------------------- 
----3-3----3-3----3-3----3-3----3-3----3-3----3-3----3-3--------------------------
----3-3----3-3----3-3----3-3----3-3----3-3----3-3----3-3--------------------------
-5------0------5------0------5------0------5------0-------4-4-4-4-4-4-7-7-7-7-7-7-
-5------0------5------0------5------0------5------0-------4-4-4-4-4-4-7-7-7-7-7-7-
-5------0------5------0------5------0------5------0-------4-4-4-4-4-4-7-7-7-7-7-7-
 -      -      -      -      -      -      -      -

pre chorus thing
------------9-9-9-10-10-10-----------------9-9-9-10-10-10------------
-8-8-8-8-8-8--------------10-10-10-10-10-10--------------8-8-8-8-8-8-
---------------------------------------------------------------------
---------------------------------------------------------------------
---------------------------------------------------------------------
---------------------------------------------------------------------

-9-9-9-10-10-10--/13-13-13-13-13-13-13*-13*-13*-13*-13*-13*-13*-
---------------------------------------------0---0---0---0---0--
----------------------------------------------------------------
----------------------------------------------------------------
----------------------------------------------------------------
----------------------------------------------------------------


chorus
------------------------------------------------------------------------------
------------------------------------------------------------------------------
--------------6-6-6-7-7-7---------------6-6-6-7-7-7---------------6-6-6-7-7-7-
-5-5-5-5-5-5--6-6-6-7-7-7--7-7-7-7-7-7--6-6-6-7-7-7--5-5-5-5-5-5--6-6-6-7-7-7-
-5-5-5-5-5-5--4-4-4-5-5-5--7-7-7-7-7-7--4-4-4-5-5-5--5-5-5-5-5-5--4-4-4-5-5-5-
-5-5-5-5-5-5---------------7-7-7-7-7-7---------------5-5-5-5-5-5-------------- 

-------------------------
-------------------------
-------------------------
-3-3-3-3-3-3-1-1-1-1-1-1-
-3-3-3-3-3-3-1-1-1-1-1-1-
-3-3-3-3-3-3-1-1-1-1-1-1-

then intro 2x's
then verse 2x's
then pre chorus
then chorus 2x's

pre solo 
---------------------
---------------------                 
---------------------    
-3--3--3--3--3--3--1-    
-3--3--3--3--3--3--1-    
-3--3--3--3--3--3--1- 
[ Tab from: http://www.guitartabs.cc/tabs/s/system_of_a_down/peephole_tab_ver_8.html ]
solo 1
-----------------------------------------------------------------   
-----------------------------------------------------------------
-7-8-7h8p7p5-7----7-8-7h8p7p5-7----7-8-7h8p7p5-7-5-3-2-3-2h3p2-0-
-----------------------------------------------------------------
-----------------------------------------------------------------
-----------------------------------------------------------------

guitar 1                         guitar 2                     
----------------------------    -------------------------
----------------------------    -------------------------
----------------------------    -------------------------
-4-5-4--5-4-5--4-5-4--5-4-5-    -4-4-4-4-4-4-7-7-7-7-7-7-
----------------------------    -4-4-4-4-4-4-7-7-7-7-7-7-
----------------------------    -4-4-4-4-4-4-7-7-7-7-7-7-


-10-11-10h11p10p9-10-----10-11-10h11p10p9-10-----10-11-10h11p10p9-10-8-6-5-6-5h6p5-3-
-------------------------------------------------------------------------------------
-------------------------------------------------------------------------------------
-------------------------------------------------------------------------------------
-------------------------------------------------------------------------------------
-------------------------------------------------------------------------------------

guitar 1                          guitar 2
----------------------------     -------------------------
----------------------------     -------------------------
----------------------------     -------------------------
-4-5-4--5-4-5--4-5-4--5-4-5-     -4-4-4-4-4-4-7-7-7-7-7-7-
----------------------------     -4-4-4-4-4-4-7-7-7-7-7-7-
----------------------------     -4-4-4-4-4-4-7-7-7-7-7-7-


solo 2                                     1st end
-----10*-10*-10*--------9*-9*-9*----      9-9*9*9*9*-9^-9*^9-9-9-9*9*9*9*-
-8------8*--8*--8---8-7--7*-7*--7---      -----------x--x-x-x-x-----------
------------------------------------      -----------6^-6-6-6-6^----------
------------------------------------      --------------------------------
------------------------------------      --------------------------------
------------------------------------      --------------------------------

2nd end                                  3rd end
-----8--8h10^--8-------6--6h8^---6--    -9-9*9*9*9*9*9*9*9*9*9-9*9*9*9*9*9*9*9*-
-6------------------4--------------8    -x-------------------x------------------
------------------------------------    -6^~-----------------6^~----------------
------------------------------------    ----------------------------------------
------------------------------------    ----------------------------------------
------------------------------------    ----------------------------------------

then
-9*----9*----9*----9*------9*--9*-9*-9*--9*------9*-9*------9*-9\-
-x-----x-----x-----x-------x---x--x--x---x-------x--x-------x--x--
-6*----6*----6*----6*------6*--6*-6*-6*--6*------6*-6*------6*-6\-
------------------------------------------------------------------
------------------------------------------------------------------
------------------------------------------------------------------



ending chorus 2x's
------------------------------------------------------------------------------
------------------------------------------------------------------------------
--------------6-6-6-7-7-7---------------6-6-6-7-7-7---------------6-6-6-7-7-7-
-5-5-5-5-5-5--6-6-6-7-7-7--7-7-7-7-7-7--6-6-6-7-7-7--5-5-5-5-5-5--6-6-6-7-7-7-
-5-5-5-5-5-5--4-4-4-5-5-5--7-7-7-7-7-7--4-4-4-5-5-5--5-5-5-5-5-5--4-4-4-5-5-5-
-5-5-5-5-5-5---------------7-7-7-7-7-7---------------5-5-5-5-5-5--------------

1st end
-------------------------       ------------------------------------
-------------------------       ------------------------------------
-------------6-6-6-7-7-7-       ------------------6-6-6-7-7-7-------
-7-7-7-7-7-7-6-6-6-7-7-7-       -7--7--7--7--7--7-6-6-6-7-7-7---5~--
-7-7-7-7-7-7-4-4-4-5-5-5-       -7--7--7--7--7--7-4-4-4-5-5-5---5~--
-7-7-7-7-7-7-------------       -7--7--7--7--7--7---------------5~--
 - - - - - - - - - - - -
Comments