System Of A Down - Peephole Chords & Tabs

 

Peephole Chords & Tabs

System Of A Down Chords & Tabs

Version: 5 Type: Tab 0 ratings
1 star 2 stars 3 stars 4 stars 5 stars
comments

Peephole Tab

   
everybody that has put a peephole song/ tab on this site have the song all wrong. 
the reason, because they dont know how to play the song. i did this tab 0ne , 
bacause this song and system of a down is awsome, and because i dont like to see 
people strugeling with inacurate tabs. so for u my ststem of a down friends, keep 
pekking through that peep hole and enjoy.!!!!


transcribed by:  thomas hassler
artist:  system of a down
song:  Peephole
tunning:  C G C F A D
*-- palm mute

Intro
D|---------------------------------------------------|
A|-----3-----3-----3-----3-----3-----3------3------3-|
F|----3-----3-----3-----3-----3-----3------3------3--|
C|--4-----4------------------------------------------|
G|-------------4-----5-----0-----0------4------5-----|
C|---------------------------------------------------|

Verse
D|-------------|
A|---3--3------|
F|---3--3------|

Post-Verse
D|----------------------------------|
A|----------------------------------|
F|----------------------------------|
C|--4-4-4-4-4-4--7-7-7-7-7-7--------|
G|--4-4-4-4-4-4--7-7-7-7-7-7--------|
C|--4-4-4-4-4-4--7-7-7-7-7-7--------|

Solo (bridge)
D|------------------9--9-9-9--10--10-10-10--------------------------|
A|-8--8-8-8--8-8-8--------------------------10--10-10-10--10-10-10--|
F|------------------------------------------------------------------|

D|-9--9-9-9--10--10-10-10-------------------9--9-9-9--10--10-10-10--|
A|-------------------------8--8-8-8--8-8-8--------------------------|
F|------------------------------------------------------------------|

D|-13--13-13-13--13-13-13--11--11-11-11--11-11-11-------------------|
A|------------------------------------------------------------------|
F|------------------------------------------------------------------|

Chorus
D|------------------------------------------------------------------|
A|------------------------------------------------------------------|
F|------------------6--6-6-6--7--7-7-7------------------------------|
C|-5--5-5-5--5-5-5--6--6-6-6--7--7-7-7--7--7-7-7--7--7--7-----------|
G|-5--5-5-5--5-5-5--4--4-4-4--5--5-5-5--7--7-7-7--7--7--7-----------|
C|-5--5-5-5--5-5-5----------------------7--7-7-7--7--7--7-----------|
[ Tab from: http://www.guitartabs.cc/tabs/s/system_of_a_down/peephole_tab_ver_5.html ]
D|--------------------------------------------------------------|
A|--------------------------------------------------------------|
F|-6--6-6-6--7--7-7-7-------------------6--6-6-6--7-7-7-7-------|
C|-6--6-6-6--7--7-7-7--5--5-5-5--5-5-5--6--6-6-6--7-7-7-7-------|
G|-4--4-4-4--5--5-5-5--5--5-5-5--5-5-5--4--4-4-4--5-5-5-5-------|
C|---------------------5--5-5-5--5-5-5--------------------------|






D|-----------------------------------------------|
A|-----------------------------------------------|
F|-10--10-10-10--10-10-10--9--9-9-9--9-9-9--7----|
C|-10--10-10-10--10-10-10--9--9-9-9--9-9-9--7----|
G|-8---8--8--8---8--8--8---6--6-6-6--6-6-6--5----|
C|-----------------------------------------------|

Intro
Verse
Solo(bridge)
Chorus

Solo
D|---------------------------------------------------------------------|
A|-7-8--6h7h8h5h-7--7-8--6h7h8h5h-7--7-8--6h7h8h5h-7-5-3-2-3--3s2-0----|
F|---------------------------------------------------------------------|
Post-Chorus
D|-10-11--9h10h11h8h-10--10-11--9h10h11h8h-10--10-11--9h10h11h8h-10----|
A|---------------------------------------------------------------------|
F|---------------------------------------------------------------------|

D|-8-7-5-6-6s5-3-----|
A|-------------------|
F|-------------------|
Post-Chorus
D|----10---10---10---10---10-------9---9---9---9---9-------|
A|-8-----8----8----8----8----8--7----7---7---7---7---7-----|
F|---------------------------------------------------------|

D|-9-9-9--9-9-9-9-9-9-9-9-9-9-9-9-9-9s1---|
A|-x-x-x--x-x-x-x-x-x-x-x-x-x-x-x-x-xs1---|
F|-6-6-6--6-6-6-6-6-6-6-6-6-6-6-6-6-6s1---|

D|----10---10---10---10---10-------9---9---9---9---9------|
A|-8-----8----8----8----8----8--7----7---7---7---7---7----|
F|--------------------------------------------------------|

D|---7-7b-----6-6b----|
A|-5------5-3---------|
F|--------------------|

D|----10---10---10---10---10-------9---9---9---9---9------|
A|-8-----8----8----8----8----8--7----7---7---7---7---7----|
F|--------------------------------------------------------|

D|-9-9-9--9-9-9-9-9-9-9-9-9-9-9-9-9-9s1---|
A|-x-x-x--x-x-x-x-x-x-x-x-x-x-x-x-x-xs1---|
F|-6-6-6--6-6-6-6-6-6-6-6-6-6-6-6-6-6s1---|


D|-9--9--9--9---9-9-9-9--9-9--9-9s1--------|
A|-8--8--8--8---8-8-8-8--8-8--8-8s1--------|
F|-----------------------------------------|

Chorus
for any questions requests, death treats or just a thanxs would be nice, for requests, 
just e-mail me at slip_knot_79@hotmail.com.
hope u like this tab...
thomas hassler
Comments