System Of A Down - Peephole Chords & Tabs

 

Peephole Chords & Tabs

System Of A Down Chords & Tabs

Version: 3 Type: Tab 2 ratings
1 star 2 stars 3 stars 4 stars 5 stars
comments

Peephole Tab

   
System Of A Down - Peephole (Tabbed by Garrett Reimer)
------------------------------------------------------

Tuning: Originally Drop C, but my version is Standard

Intro - Repeat 2 times
----------------------

E-------------|-------------|-------------|-------------|
B-----1-----1-|-----1-----1-|-----1-----1-|-----1-----1-|
G---1-----1---|---1-----1---|---1-----1---|---1-----1---|
D-3-----3-----|-------------|-------------|-------------|
A-------------|-2-----3-----|-------------|-2-----3-----|
E-------------|-------------|-3-----3-----|-------------|


Verse - Repeat 4 times
----------------------

E-------------|
B---1-1--1-1--|
G---1-1--1-1--|
D-------------|
A-3-----------|
E-------3-----|
When your...

  E5            G5
E-------------|-------------|
B-------------|-------------|
G-------------|-------------|
D-2-2-2-2-2-2-|-5-5-5-5-5-5-|
A-2-2-2-2-2-2-|-5-5-5-5-5-5-|
E-0-0-0-0-0-0-|-3-3-3-3-3-3-|
                ....Sky


E-------------|-7-7-7-8-8-8-|-------------|-7-7-7-8-8-8-|
B-6-6-6-6-6-6-|-------------|-8-8-8-8-8-8-|-------------|
G-------------|-------------|-------------|-------------|
D-------------|-------------|-------------|-------------|
A-------------|-------------|-------------|-------------|
E-------------|-------------|-------------|-------------|
              Do you believe...

E-------------|-7-7-7-8-8-8-|-11-------11-11-10-11-10-11-10 10-|
B-6-6-6-6-6-6-|-------------|----13----------------------------|
G-------------|-------------|----------------------------------|
D-------------|-------------|----------------------------------|
A-------------|-------------|----------------------------------|
E-------------|-------------|----------------------------------|

Chorus?
-------

  F5            B5    C5      G5            B5    C5
E-------------|-------------|-------------|-------------|
B-------------|-------------|-------------|-------------|
G-------------|-4-4-4-5-5-5-|-------------|-4-4-4-5-5-5-|
D-3-3-3-3-3-3-|-4-4-4-5-5-5-|-5-5-5-5-5-5-|-4-4-4-5-5-5-|
A-3-3-3-3-3-3-|-2-2-2-3-3-3-|-5-5-5-5-5-5-|-2-2-2-3-3-3-|
E-1-1-1-1-1-1-|-------------|-3-3-3-3-3-3-|-------------|
          Dont you ever...           Dont you ever...

[ Tab from: http://www.guitartabs.cc/tabs/s/system_of_a_down/peephole_tab_ver_3.html ]
E-------------|-------------|-------------|-------------|
B-------------|-------------|-------------|-------------|
G-------------|-4-4-4-5-5-5-|-------------|-------------|
D-3-3-3-3-3-3-|-4-4-4-5-5-5-|-2-2-2-2-2-2-|-3-3-3-3-3-3-|
A-3-3-3-3-3-3-|-2-2-2-3-3-3-|-2-2-2-2-2-2-|-3-3-3-3-3-3-|
E-1-1-1-1-1-1-|-------------|-0-0-0-0-0-0-|-1-1-1-1-1-1-|
          Dont ever...                  When you're high


2nd chorus does that 2 times and ends by adding this:
("."=staccato)

   F#5          G5
  . . . . . .
E-------------|-------------|-------------|-------------|
B-------------|-------------|-------------|-------------|
G-------------|-------------|-------------|-------------|
D-4-4-4-5-5-5-|-5-----------|-------------|-------------|
A-4-4-4-5-5-5-|-5-----------|-------------|-------------|
E-2-2-2-3-3-3-|-3-----------|-------------|-------------|


Pre-Solo
--------

E-------------|-------------|-------------|----------------|
B-1-2-1h2p1-1-|-1-2-1h2p1-1-|-1-2-1h2p1-1-|----------------|
G----------3--|----------3--|----------3--|3-1-0-1-0h1p0---|
D-------------|-------------|-------------|--------------3-|
A-------------|-------------|-------------|----------------|
E-------------|-------------|-------------|----------------|

  E5            G5
E-------------|-------------|
B-------------|-------------|
G-------------|-------------|
D-2-2-2-2-2-2-|-5-5-5-5-5-5-|
A-2-2-2-2-2-2-|-5-5-5-5-5-5-|
E-0-0-0-0-0-0-|-3-3-3-3-3-3-|

E-8-9-8h9p8--8|-8-9-8h9p8--8|-8-9-8h9p8--8|-------------------|
B----------11-|----------11-|----------11-|-11-9-8-9-8h9p8----|
G-------------|-------------|-------------|----------------10-|
D-------------|-------------|-------------|-------------------|
A-------------|-------------|-------------|-------------------|
E-------------|-------------|-------------|-------------------|

E-------------|-------------|-------------|-------------|
B-------------|-------------|-------------|-------------|
G-------------|-------------|-------------|-------------|
D-------------|-------------|-------------|-------------|
A-------------|-------------|-------------|-------------|
E-------------|-------------|-------------|-------------|

...im too tired to finish with the solo, besides, its a solo.. make it up urself
Comments