System Of A Down - Peephole Chords & Tabs

 

Peephole Chords & Tabs

System Of A Down Chords & Tabs

Version: 2 Type: Tab 2 ratings
1 star 2 stars 3 stars 4 stars 5 stars
comments

Peephole Tab

Song-Peephole
Band-System of a Down
Album-Toxicity
=Bend Up

Intro

|------------------------------------------------------------------------------------------|
|----------3-----------3-----------3----------3---------3---------3----------3----------3--|
|------3-----------3------------3-----------3---------3---------3----------3----------3----|
|--5-----------5-----------------------------------0---------0-----------------------------|
|----------------------------4-----------5------------------------------4----------5-------|
|------------------------------------------------------------------------------------------|


Verse

|----------------------------------------------------------------|
|--3--3----3--3----3--3----3--3----3--3----3--3----3--3----3--3--|
|--3--3----3--3----3--3----3--3----3--3----3--3----3--3----3--3--|
|----------------------------------------------------------------|
|----------------------------------------------------------------|
|----------------------------------------------------------------|

|------------------------------------------------------------------------------------------------|
|------------------------------------------------------------------------------------------------|
|------------------------------------------------------------------------------------------------|
|------------------------------------------------------------------------------------------------|
|--4--4----4--4----4--4----4--4----4--4----4--4----7--7----7--7----7--7----7--7----7--7----7--7--|
|--4--4----4--4----4--4----4--4----4--4----4--4----7--7----7--7----7--7----7--7----7--7----7--7--|


Pre-Chorus

|--------------9-9-9-10-10-10-------------------9-9-9-10-10-10-------------9-9-9-10-10-10/13-13-12-12-12-12-12-12--|
|--8-8-8-8-8-8----------------10-10-10-10-10-10----------------8-8-8-8-8-8----------------------11-11-11-11-11-11--|
|------------------------------------------------------------------------------------------------------------------|
|------------------------------------------------------------------------------------------------------------------|
|------------------------------------------------------------------------------------------------------------------|
|------------------------------------------------------------------------------------------------------------------|


Chorus
[ Tab from: http://www.guitartabs.cc/tabs/s/system_of_a_down/peephole_tab_ver_2.html ]
|------------------------------------|
|------------------------------------|
|------------------------------------|
|------------------------------------|
|--5--5----11--12----7--7----11--12--|
|--5--5----11--12----7--7----11--12--|


Interlude

|-----------------|
|-----------------|
|-----------------|
|-----------------|
|--4-4-4-4-4-4-7--|
|--4-4-4-4-4-4-7--|


Guitar Solo

|------------------------------------------------------------------------------------|
|--3--4--3/4/3--1--3----3--4--3/4/3--1--3----3--4--3/4/3--1--3-----------------------|
|--------------------------------------------------------------5--3--2--3--2/3/2--0--|
|------------------------------------------------------------------------------------|
|------------------------------------------------------------------------------------|
|------------------------------------------------------------------------------------|

|----------------------------|
|----------------------------|
|----------------------------|
|--4-4-4-4-4-4--7-7-7-7-7-7--|
|--4-4-4-4-4-4--7-7-7-7-7-7--|
|--4-4-4-4-4-4--7-7-7-7-7-7--|

|----------------------------------------------------------------------------------------------------------|
|--10--11--10/11/10--8--10----10--11--10/11/10--8--10----10--11--10/11/10--8--10---------------------------|
|--------------------------------------------------------------------------------12--10--9--10--9/10/9--7--|
|----------------------------------------------------------------------------------------------------------|
|----------------------------------------------------------------------------------------------------------|
|----------------------------------------------------------------------------------------------------------|


Interlude 2

|------10-10-10-10-------9-9-9-9---9--9-9-9-9--|
|--8----8--8--8--8----7--7-7-7-7------------------|
|-------------------------------------------------|
|-------------------------------------------------|
|-------------------------------------------------|
|-------------------------------------------------|

|------10-10-10-10-------9-9-9-9-----8-10-8-----6-8-6--|
|--8----8--8--8--8----7--7-7-7-7---6----------4--------|
|------------------------------------------------------|
|------------------------------------------------------|
|------------------------------------------------------|
|------------------------------------------------------|

|------10-10-10-10-------9-9-9-9----9-9-9-9-9-9-9-9-9--|
|--8----8--8--8--8----7--7-7-7-7-----------------------|
|------------------------------------------------------|
|------------------------------------------------------|
|------------------------------------------------------|
|------------------------------------------------------|

Comments