System Of A Down - Peephole Chords & Tabs

 

Peephole Chords & Tabs

System Of A Down Chords & Tabs

Version: 10 Type: Tab

Peephole Tab

alright... this is the tabs i came up with in normal tuning....
these are jsut the main riffs, and the placement/repetition of the riffs might
not be totally accurate, but if u listen to the song, u can figure them out pretty quickly...
have fun!

              (clean... verrry little distortion)
E----------------------------------------------------------------
B---1---1------1-----1------1----1-----1----1--------------------
G--1---1-----1-----1------1----1-----1----1----------------------
D-3---3----------------------------------------------------------
A----------2-----3----------------2----3-------------------------
E----------------------3----3------------------------------------


E----------------------------------------------------------------
B---0-0---0-0---0-0---0-0---0-0------(repeat these as neccessary)
G---0-0---0-0---0-0---0-0---0-0----------------------------------
D----------------------------------------------------------------
A----------------------------------------------------------------
E----------------------------------------------------------------

              (distorted)
E----------------------------------------------------------------
B----------------------------------------------------------------
G----------------------------------------------------------------
D--5--5--5--5--5----8--8--8--8--8--8----------------------------- X2
A--5--5--5--5--5----8--8--8--8--8--8-----------------------------
E--3--3--3--3--3----6--6--6--6--6--6-----------------------------
[ Tab from: http://www.guitartabs.cc/tabs/s/system_of_a_down/peephole_tab_ver_10.html ]
              (it doesn't sound too distorted, but trust me, it is)
E--------------7-7-7-8-8-8--------------7-7-7-8-8-8--------------
B--5-5-5-5-5-5--------------6-6-6-6-6-6--------------------------
G----------------------------------------------------------------
D----------------------------------------------------------------
A----------------------------------------------------------------
E----------------------------------------------------------------

E--------------7-7-7-8-8-8-----10-10-10-10-10-10-10-10-10----------
B--5-5-5-5-5-5--------------------------------12-12-12-12----------
G-------------------------------------------(bend the twelves only)
D------------------------------------------------------------------
A------------------------------------------------------------------
E------------------------------------------------------------------

                                           repeat X2      then play 
E------------------------------------------------------|---------------
B------------------------------------------------------|---------------
G--------------3-3-3-4-4-4----------------3-3-3-4-4-4--|-7-7-7-7-7-6---
D-2-2-2-2-2-2--3-3-3-4-4-4---3-3-3-3-3-3--3-3-3-4-4-4--|-7-7-7-7-7-6---
A-2-2-2-2-2-2--1-1-1-2-2-2---3-3-3-3-3-3--1-1-1-2-2-2--|-5-5-5-5-5-4---
E-0-0-0-0-0-0----------------1-1-1-1-1-1---------------|---------------

i can't remember the presolo/solo at the moment, but there is a good version of
it in one of the other submissions.. check it out...
anyway, the rest goes as...
                        repeat X2                         then play 
E--------------------------|----------------------------||---------------
B--------------------------|----------------------------||---------------
G--------------3-3-3-4-4-4-|---------------3-3-3-4-4-4--||-7-7-7-7-7-6---
D-2-2-2-2-2-2--3-3-3-4-4-4-|--3-3-3-3-3-3--3-3-3-4-4-4--||-7-7-7-7-7-6---
A-2-2-2-2-2-2--1-1-1-2-2-2-|--3-3-3-3-3-3--1-1-1-2-2-2--||-5-5-5-5-5-4---
E-0-0-0-0-0-0--------------|--1-1-1-1-1-1---------------||---------------

repeat this part as neccessary... but towards the end of the song play only the
first part over and over, then the third part... that would about end the song...